  0
SECTION
  2
BLOCKS
  0
ENDSEC
  0
SECTION
  2
ENTITIES
  0
LINE
  8
0
 10
20
 20
604
 11
30
 21
604
  0
LINE
  8
0
 10
30
 20
604
 11
30
 21
601
  0
LINE
  8
0
 10
30
 20
601
 11
40
 21
601
  0
LINE
  8
0
 10
40
 20
601
 11
40
 21
604
  0
LINE
  8
0
 10
40
 20
604
 11
50
 21
604
  0
LINE
  8
0
 10
50
 20
604
 11
50
 21
601
  0
LINE
  8
0
 10
50
 20
601
 11
60
 21
601
  0
LINE
  8
0
 10
60
 20
601
 11
60
 21
604
  0
LINE
  8
0
 10
60
 20
604
 11
70
 21
604
  0
LINE
  8
0
 10
70
 20
604
 11
70
 21
601
  0
LINE
  8
0
 10
70
 20
601
 11
80
 21
601
  0
LINE
  8
0
 10
80
 20
601
 11
80
 21
604
  0
LINE
  8
0
 10
80
 20
604
 11
90
 21
604
  0
LINE
  8
0
 10
90
 20
604
 11
90
 21
601
  0
LINE
  8
0
 10
90
 20
601
 11
100
 21
601
  0
LINE
  8
0
 10
100
 20
601
 11
100
 21
604
  0
LINE
  8
0
 10
100
 20
604
 11
110
 21
604
  0
LINE
  8
0
 10
110
 20
604
 11
110
 21
601
  0
LINE
  8
0
 10
110
 20
601
 11
120
 21
601
  0
LINE
  8
0
 10
120
 20
601
 11
120
 21
604
  0
LINE
  8
0
 10
120
 20
604
 11
130
 21
604
  0
LINE
  8
0
 10
130
 20
604
 11
130
 21
601
  0
LINE
  8
0
 10
130
 20
601
 11
140
 21
601
  0
LINE
  8
0
 10
140
 20
601
 11
140
 21
604
  0
LINE
  8
0
 10
140
 20
604
 11
150
 21
604
  0
LINE
  8
0
 10
150
 20
604
 11
150
 21
601
  0
LINE
  8
0
 10
150
 20
601
 11
160
 21
601
  0
LINE
  8
0
 10
160
 20
601
 11
160
 21
604
  0
LINE
  8
0
 10
160
 20
604
 11
170
 21
604
  0
LINE
  8
0
 10
170
 20
604
 11
170
 21
601
  0
LINE
  8
0
 10
170
 20
601
 11
180
 21
601
  0
LINE
  8
0
 10
180
 20
601
 11
180
 21
604
  0
LINE
  8
0
 10
180
 20
604
 11
190
 21
604
  0
LINE
  8
0
 10
190
 20
604
 11
190
 21
601
  0
LINE
  8
0
 10
190
 20
601
 11
200
 21
601
  0
LINE
  8
0
 10
200
 20
601
 11
200
 21
604
  0
LINE
  8
0
 10
200
 20
604
 11
210
 21
604
  0
LINE
  8
0
 10
210
 20
604
 11
210
 21
601
  0
LINE
  8
0
 10
210
 20
601
 11
220
 21
601
  0
LINE
  8
0
 10
220
 20
601
 11
220
 21
604
  0
LINE
  8
0
 10
220
 20
604
 11
230
 21
604
  0
LINE
  8
0
 10
230
 20
604
 11
230
 21
601
  0
LINE
  8
0
 10
230
 20
601
 11
240
 21
601
  0
LINE
  8
0
 10
240
 20
601
 11
240
 21
604
  0
LINE
  8
0
 10
240
 20
604
 11
250
 21
604
  0
LINE
  8
0
 10
250
 20
604
 11
250
 21
601
  0
LINE
  8
0
 10
250
 20
601
 11
260
 21
601
  0
LINE
  8
0
 10
260
 20
601
 11
260
 21
604
  0
LINE
  8
0
 10
260
 20
604
 11
270
 21
604
  0
LINE
  8
0
 10
270
 20
604
 11
270
 21
601
  0
LINE
  8
0
 10
270
 20
601
 11
280
 21
601
  0
LINE
  8
0
 10
280
 20
601
 11
280
 21
604
  0
LINE
  8
0
 10
280
 20
604
 11
290
 21
604
  0
LINE
  8
0
 10
290
 20
604
 11
290
 21
601
  0
LINE
  8
0
 10
290
 20
601
 11
300
 21
601
  0
LINE
  8
0
 10
300
 20
601
 11
300
 21
604
  0
LINE
  8
0
 10
300
 20
604
 11
310
 21
604
  0
LINE
  8
0
 10
310
 20
604
 11
310
 21
601
  0
LINE
  8
0
 10
310
 20
601
 11
320
 21
601
  0
LINE
  8
0
 10
320
 20
601
 11
320
 21
604
  0
LINE
  8
0
 10
320
 20
604
 11
330
 21
604
  0
LINE
  8
0
 10
330
 20
604
 11
330
 21
601
  0
LINE
  8
0
 10
330
 20
601
 11
340
 21
601
  0
LINE
  8
0
 10
340
 20
601
 11
340
 21
604
  0
LINE
  8
0
 10
340
 20
604
 11
350
 21
604
  0
LINE
  8
0
 10
350
 20
604
 11
350
 21
601
  0
LINE
  8
0
 10
350
 20
601
 11
360
 21
601
  0
LINE
  8
0
 10
360
 20
601
 11
360
 21
604
  0
LINE
  8
0
 10
360
 20
604
 11
370
 21
604
  0
LINE
  8
0
 10
370
 20
604
 11
370
 21
601
  0
LINE
  8
0
 10
370
 20
601
 11
380
 21
601
  0
LINE
  8
0
 10
380
 20
601
 11
380
 21
604
  0
LINE
  8
0
 10
380
 20
604
 11
390
 21
604
  0
LINE
  8
0
 10
390
 20
604
 11
390
 21
601
  0
LINE
  8
0
 10
390
 20
601
 11
400
 21
601
  0
LINE
  8
0
 10
400
 20
601
 11
400
 21
611
  0
LINE
  8
0
 10
400
 20
611
 11
397
 21
611
  0
LINE
  8
0
 10
397
 20
611
 11
397
 21
621
  0
LINE
  8
0
 10
397
 20
621
 11
400
 21
621
  0
LINE
  8
0
 10
400
 20
621
 11
400
 21
631
  0
LINE
  8
0
 10
400
 20
631
 11
397
 21
631
  0
LINE
  8
0
 10
397
 20
631
 11
397
 21
641
  0
LINE
  8
0
 10
397
 20
641
 11
400
 21
641
  0
LINE
  8
0
 10
400
 20
641
 11
400
 21
651
  0
LINE
  8
0
 10
400
 20
651
 11
397
 21
651
  0
LINE
  8
0
 10
397
 20
651
 11
397
 21
661
  0
LINE
  8
0
 10
397
 20
661
 11
400
 21
661
  0
LINE
  8
0
 10
400
 20
661
 11
400
 21
671
  0
LINE
  8
0
 10
400
 20
671
 11
397
 21
671
  0
LINE
  8
0
 10
397
 20
671
 11
397
 21
681
  0
LINE
  8
0
 10
397
 20
681
 11
400
 21
681
  0
LINE
  8
0
 10
400
 20
681
 11
400
 21
691
  0
LINE
  8
0
 10
400
 20
691
 11
397
 21
691
  0
LINE
  8
0
 10
397
 20
691
 11
397
 21
701
  0
LINE
  8
0
 10
397
 20
701
 11
400
 21
701
  0
LINE
  8
0
 10
400
 20
701
 11
400
 21
711
  0
LINE
  8
0
 10
400
 20
711
 11
397
 21
711
  0
LINE
  8
0
 10
397
 20
711
 11
397
 21
721
  0
LINE
  8
0
 10
397
 20
721
 11
400
 21
721
  0
LINE
  8
0
 10
400
 20
721
 11
400
 21
731
  0
LINE
  8
0
 10
400
 20
731
 11
397
 21
731
  0
LINE
  8
0
 10
397
 20
731
 11
397
 21
741
  0
LINE
  8
0
 10
397
 20
741
 11
400
 21
741
  0
LINE
  8
0
 10
400
 20
741
 11
400
 21
751
  0
LINE
  8
0
 10
400
 20
751
 11
397
 21
751
  0
LINE
  8
0
 10
397
 20
751
 11
397
 21
761
  0
LINE
  8
0
 10
397
 20
761
 11
400
 21
761
  0
LINE
  8
0
 10
400
 20
761
 11
400
 21
771
  0
LINE
  8
0
 10
400
 20
771
 11
397
 21
771
  0
LINE
  8
0
 10
397
 20
771
 11
397
 21
781
  0
LINE
  8
0
 10
397
 20
781
 11
400
 21
781
  0
LINE
  8
0
 10
400
 20
781
 11
400
 21
791
  0
LINE
  8
0
 10
400
 20
791
 11
397
 21
791
  0
LINE
  8
0
 10
397
 20
791
 11
397
 21
801
  0
LINE
  8
0
 10
397
 20
801
 11
400
 21
801
  0
LINE
  8
0
 10
400
 20
801
 11
400
 21
811
  0
LINE
  8
0
 10
400
 20
811
 11
397
 21
811
  0
LINE
  8
0
 10
397
 20
811
 11
397
 21
821
  0
LINE
  8
0
 10
397
 20
821
 11
400
 21
821
  0
LINE
  8
0
 10
400
 20
821
 11
400
 21
831
  0
LINE
  8
0
 10
400
 20
831
 11
397
 21
831
  0
LINE
  8
0
 10
397
 20
831
 11
397
 21
841
  0
LINE
  8
0
 10
397
 20
841
 11
400
 21
841
  0
LINE
  8
0
 10
400
 20
841
 11
400
 21
851
  0
LINE
  8
0
 10
400
 20
851
 11
397
 21
851
  0
LINE
  8
0
 10
397
 20
851
 11
397
 21
861
  0
LINE
  8
0
 10
397
 20
861
 11
400
 21
861
  0
LINE
  8
0
 10
400
 20
861
 11
400
 21
871
  0
LINE
  8
0
 10
400
 20
871
 11
397
 21
871
  0
LINE
  8
0
 10
397
 20
871
 11
397
 21
881
  0
LINE
  8
0
 10
397
 20
881
 11
400
 21
881
  0
LINE
  8
0
 10
400
 20
881
 11
400
 21
891
  0
LINE
  8
0
 10
400
 20
891
 11
397
 21
891
  0
LINE
  8
0
 10
397
 20
891
 11
397
 21
901
  0
LINE
  8
0
 10
397
 20
901
 11
400
 21
901
  0
LINE
  8
0
 10
400
 20
901
 11
400
 21
911
  0
LINE
  8
0
 10
400
 20
911
 11
397
 21
911
  0
LINE
  8
0
 10
397
 20
911
 11
397
 21
921
  0
LINE
  8
0
 10
397
 20
921
 11
400
 21
921
  0
LINE
  8
0
 10
400
 20
921
 11
400
 21
931
  0
LINE
  8
0
 10
400
 20
931
 11
397
 21
931
  0
LINE
  8
0
 10
397
 20
931
 11
397
 21
941
  0
LINE
  8
0
 10
397
 20
941
 11
400
 21
941
  0
LINE
  8
0
 10
400
 20
941
 11
400
 21
951
  0
LINE
  8
0
 10
400
 20
951
 11
397
 21
951
  0
LINE
  8
0
 10
397
 20
951
 11
397
 21
961
  0
LINE
  8
0
 10
397
 20
961
 11
400
 21
961
  0
LINE
  8
0
 10
400
 20
961
 11
400
 21
971
  0
LINE
  8
0
 10
400
 20
971
 11
397
 21
971
  0
LINE
  8
0
 10
397
 20
971
 11
397
 21
981
  0
LINE
  8
0
 10
397
 20
981
 11
400
 21
981
  0
LINE
  8
0
 10
400
 20
981
 11
400
 21
991
  0
LINE
  8
0
 10
400
 20
991
 11
397
 21
991
  0
LINE
  8
0
 10
397
 20
991
 11
397
 21
1001
  0
LINE
  8
0
 10
397
 20
1001
 11
400
 21
1001
  0
LINE
  8
0
 10
400
 20
1001
 11
400
 21
1011
  0
LINE
  8
0
 10
400
 20
1011
 11
397
 21
1011
  0
LINE
  8
0
 10
397
 20
1011
 11
397
 21
1021
  0
LINE
  8
0
 10
397
 20
1021
 11
400
 21
1021
  0
LINE
  8
0
 10
400
 20
1021
 11
400
 21
1031
  0
LINE
  8
0
 10
400
 20
1031
 11
397
 21
1031
  0
LINE
  8
0
 10
397
 20
1031
 11
397
 21
1041
  0
LINE
  8
0
 10
397
 20
1041
 11
400
 21
1041
  0
LINE
  8
0
 10
400
 20
1041
 11
400
 21
1051
  0
LINE
  8
0
 10
400
 20
1051
 11
397
 21
1051
  0
LINE
  8
0
 10
397
 20
1051
 11
397
 21
1061
  0
LINE
  8
0
 10
397
 20
1061
 11
400
 21
1061
  0
LINE
  8
0
 10
400
 20
1061
 11
400
 21
1071
  0
LINE
  8
0
 10
400
 20
1071
 11
397
 21
1071
  0
LINE
  8
0
 10
397
 20
1071
 11
397
 21
1081
  0
LINE
  8
0
 10
397
 20
1081
 11
400
 21
1081
  0
LINE
  8
0
 10
400
 20
1081
 11
400
 21
1091
  0
LINE
  8
0
 10
400
 20
1091
 11
397
 21
1091
  0
LINE
  8
0
 10
397
 20
1091
 11
397
 21
1101
  0
LINE
  8
0
 10
397
 20
1101
 11
400
 21
1101
  0
LINE
  8
0
 10
400
 20
1101
 11
400
 21
1111
  0
LINE
  8
0
 10
400
 20
1111
 11
397
 21
1111
  0
LINE
  8
0
 10
397
 20
1111
 11
397
 21
1121
  0
LINE
  8
0
 10
397
 20
1121
 11
400
 21
1121
  0
LINE
  8
0
 10
400
 20
1121
 11
400
 21
1131
  0
LINE
  8
0
 10
400
 20
1131
 11
397
 21
1131
  0
LINE
  8
0
 10
397
 20
1131
 11
397
 21
1141
  0
LINE
  8
0
 10
397
 20
1141
 11
400
 21
1141
  0
LINE
  8
0
 10
400
 20
1141
 11
400
 21
1151
  0
LINE
  8
0
 10
400
 20
1151
 11
397
 21
1151
  0
LINE
  8
0
 10
397
 20
1151
 11
397
 21
1161
  0
LINE
  8
0
 10
397
 20
1161
 11
400
 21
1161
  0
LINE
  8
0
 10
400
 20
1161
 11
400
 21
1171
  0
LINE
  8
0
 10
400
 20
1171
 11
397
 21
1171
  0
LINE
  8
0
 10
397
 20
1171
 11
397
 21
1181
  0
LINE
  8
0
 10
397
 20
1181
 11
400
 21
1181
  0
LINE
  8
0
 10
400
 20
1181
 11
400
 21
1191
  0
LINE
  8
0
 10
400
 20
1191
 11
397
 21
1191
  0
LINE
  8
0
 10
397
 20
1191
 11
397
 21
1198
  0
LINE
  8
0
 10
397
 20
1198
 11
390
 21
1198
  0
LINE
  8
0
 10
390
 20
1198
 11
390
 21
1201
  0
LINE
  8
0
 10
390
 20
1201
 11
380
 21
1201
  0
LINE
  8
0
 10
380
 20
1201
 11
380
 21
1198
  0
LINE
  8
0
 10
380
 20
1198
 11
370
 21
1198
  0
LINE
  8
0
 10
370
 20
1198
 11
370
 21
1201
  0
LINE
  8
0
 10
370
 20
1201
 11
360
 21
1201
  0
LINE
  8
0
 10
360
 20
1201
 11
360
 21
1198
  0
LINE
  8
0
 10
360
 20
1198
 11
350
 21
1198
  0
LINE
  8
0
 10
350
 20
1198
 11
350
 21
1201
  0
LINE
  8
0
 10
350
 20
1201
 11
340
 21
1201
  0
LINE
  8
0
 10
340
 20
1201
 11
340
 21
1198
  0
LINE
  8
0
 10
340
 20
1198
 11
330
 21
1198
  0
LINE
  8
0
 10
330
 20
1198
 11
330
 21
1201
  0
LINE
  8
0
 10
330
 20
1201
 11
320
 21
1201
  0
LINE
  8
0
 10
320
 20
1201
 11
320
 21
1198
  0
LINE
  8
0
 10
320
 20
1198
 11
310
 21
1198
  0
LINE
  8
0
 10
310
 20
1198
 11
310
 21
1201
  0
LINE
  8
0
 10
310
 20
1201
 11
300
 21
1201
  0
LINE
  8
0
 10
300
 20
1201
 11
300
 21
1198
  0
LINE
  8
0
 10
300
 20
1198
 11
290
 21
1198
  0
LINE
  8
0
 10
290
 20
1198
 11
290
 21
1201
  0
LINE
  8
0
 10
290
 20
1201
 11
280
 21
1201
  0
LINE
  8
0
 10
280
 20
1201
 11
280
 21
1198
  0
LINE
  8
0
 10
280
 20
1198
 11
270
 21
1198
  0
LINE
  8
0
 10
270
 20
1198
 11
270
 21
1201
  0
LINE
  8
0
 10
270
 20
1201
 11
260
 21
1201
  0
LINE
  8
0
 10
260
 20
1201
 11
260
 21
1198
  0
LINE
  8
0
 10
260
 20
1198
 11
250
 21
1198
  0
LINE
  8
0
 10
250
 20
1198
 11
250
 21
1201
  0
LINE
  8
0
 10
250
 20
1201
 11
240
 21
1201
  0
LINE
  8
0
 10
240
 20
1201
 11
240
 21
1198
  0
LINE
  8
0
 10
240
 20
1198
 11
230
 21
1198
  0
LINE
  8
0
 10
230
 20
1198
 11
230
 21
1201
  0
LINE
  8
0
 10
230
 20
1201
 11
220
 21
1201
  0
LINE
  8
0
 10
220
 20
1201
 11
220
 21
1198
  0
LINE
  8
0
 10
220
 20
1198
 11
210
 21
1198
  0
LINE
  8
0
 10
210
 20
1198
 11
210
 21
1201
  0
LINE
  8
0
 10
210
 20
1201
 11
200
 21
1201
  0
LINE
  8
0
 10
200
 20
1201
 11
200
 21
1198
  0
LINE
  8
0
 10
200
 20
1198
 11
190
 21
1198
  0
LINE
  8
0
 10
190
 20
1198
 11
190
 21
1201
  0
LINE
  8
0
 10
190
 20
1201
 11
180
 21
1201
  0
LINE
  8
0
 10
180
 20
1201
 11
180
 21
1198
  0
LINE
  8
0
 10
180
 20
1198
 11
170
 21
1198
  0
LINE
  8
0
 10
170
 20
1198
 11
170
 21
1201
  0
LINE
  8
0
 10
170
 20
1201
 11
160
 21
1201
  0
LINE
  8
0
 10
160
 20
1201
 11
160
 21
1198
  0
LINE
  8
0
 10
160
 20
1198
 11
150
 21
1198
  0
LINE
  8
0
 10
150
 20
1198
 11
150
 21
1201
  0
LINE
  8
0
 10
150
 20
1201
 11
140
 21
1201
  0
LINE
  8
0
 10
140
 20
1201
 11
140
 21
1198
  0
LINE
  8
0
 10
140
 20
1198
 11
130
 21
1198
  0
LINE
  8
0
 10
130
 20
1198
 11
130
 21
1201
  0
LINE
  8
0
 10
130
 20
1201
 11
120
 21
1201
  0
LINE
  8
0
 10
120
 20
1201
 11
120
 21
1198
  0
LINE
  8
0
 10
120
 20
1198
 11
110
 21
1198
  0
LINE
  8
0
 10
110
 20
1198
 11
110
 21
1201
  0
LINE
  8
0
 10
110
 20
1201
 11
100
 21
1201
  0
LINE
  8
0
 10
100
 20
1201
 11
100
 21
1198
  0
LINE
  8
0
 10
100
 20
1198
 11
90
 21
1198
  0
LINE
  8
0
 10
90
 20
1198
 11
90
 21
1201
  0
LINE
  8
0
 10
90
 20
1201
 11
80
 21
1201
  0
LINE
  8
0
 10
80
 20
1201
 11
80
 21
1198
  0
LINE
  8
0
 10
80
 20
1198
 11
70
 21
1198
  0
LINE
  8
0
 10
70
 20
1198
 11
70
 21
1201
  0
LINE
  8
0
 10
70
 20
1201
 11
60
 21
1201
  0
LINE
  8
0
 10
60
 20
1201
 11
60
 21
1198
  0
LINE
  8
0
 10
60
 20
1198
 11
50
 21
1198
  0
LINE
  8
0
 10
50
 20
1198
 11
50
 21
1201
  0
LINE
  8
0
 10
50
 20
1201
 11
40
 21
1201
  0
LINE
  8
0
 10
40
 20
1201
 11
40
 21
1198
  0
LINE
  8
0
 10
40
 20
1198
 11
30
 21
1198
  0
LINE
  8
0
 10
30
 20
1198
 11
30
 21
1201
  0
LINE
  8
0
 10
30
 20
1201
 11
20
 21
1201
  0
LINE
  8
0
 10
20
 20
1201
 11
20
 21
1198
  0
LINE
  8
0
 10
20
 20
1198
 11
10
 21
1198
  0
LINE
  8
0
 10
10
 20
1198
 11
10
 21
1201
  0
LINE
  8
0
 10
10
 20
1201
 11
0
 21
1201
  0
LINE
  8
0
 10
0
 20
1201
 11
0
 21
1191
  0
LINE
  8
0
 10
0
 20
1191
 11
3
 21
1191
  0
LINE
  8
0
 10
3
 20
1191
 11
3
 21
1181
  0
LINE
  8
0
 10
3
 20
1181
 11
0
 21
1181
  0
LINE
  8
0
 10
0
 20
1181
 11
0
 21
1171
  0
LINE
  8
0
 10
0
 20
1171
 11
3
 21
1171
  0
LINE
  8
0
 10
3
 20
1171
 11
3
 21
1161
  0
LINE
  8
0
 10
3
 20
1161
 11
0
 21
1161
  0
LINE
  8
0
 10
0
 20
1161
 11
0
 21
1151
  0
LINE
  8
0
 10
0
 20
1151
 11
3
 21
1151
  0
LINE
  8
0
 10
3
 20
1151
 11
3
 21
1141
  0
LINE
  8
0
 10
3
 20
1141
 11
0
 21
1141
  0
LINE
  8
0
 10
0
 20
1141
 11
0
 21
1131
  0
LINE
  8
0
 10
0
 20
1131
 11
3
 21
1131
  0
LINE
  8
0
 10
3
 20
1131
 11
3
 21
1121
  0
LINE
  8
0
 10
3
 20
1121
 11
0
 21
1121
  0
LINE
  8
0
 10
0
 20
1121
 11
0
 21
1111
  0
LINE
  8
0
 10
0
 20
1111
 11
3
 21
1111
  0
LINE
  8
0
 10
3
 20
1111
 11
3
 21
1101
  0
LINE
  8
0
 10
3
 20
1101
 11
0
 21
1101
  0
LINE
  8
0
 10
0
 20
1101
 11
0
 21
1091
  0
LINE
  8
0
 10
0
 20
1091
 11
3
 21
1091
  0
LINE
  8
0
 10
3
 20
1091
 11
3
 21
1081
  0
LINE
  8
0
 10
3
 20
1081
 11
0
 21
1081
  0
LINE
  8
0
 10
0
 20
1081
 11
0
 21
1071
  0
LINE
  8
0
 10
0
 20
1071
 11
3
 21
1071
  0
LINE
  8
0
 10
3
 20
1071
 11
3
 21
1061
  0
LINE
  8
0
 10
3
 20
1061
 11
0
 21
1061
  0
LINE
  8
0
 10
0
 20
1061
 11
0
 21
1051
  0
LINE
  8
0
 10
0
 20
1051
 11
3
 21
1051
  0
LINE
  8
0
 10
3
 20
1051
 11
3
 21
1041
  0
LINE
  8
0
 10
3
 20
1041
 11
0
 21
1041
  0
LINE
  8
0
 10
0
 20
1041
 11
0
 21
1031
  0
LINE
  8
0
 10
0
 20
1031
 11
3
 21
1031
  0
LINE
  8
0
 10
3
 20
1031
 11
3
 21
1021
  0
LINE
  8
0
 10
3
 20
1021
 11
0
 21
1021
  0
LINE
  8
0
 10
0
 20
1021
 11
0
 21
1011
  0
LINE
  8
0
 10
0
 20
1011
 11
3
 21
1011
  0
LINE
  8
0
 10
3
 20
1011
 11
3
 21
1001
  0
LINE
  8
0
 10
3
 20
1001
 11
0
 21
1001
  0
LINE
  8
0
 10
0
 20
1001
 11
0
 21
991
  0
LINE
  8
0
 10
0
 20
991
 11
3
 21
991
  0
LINE
  8
0
 10
3
 20
991
 11
3
 21
981
  0
LINE
  8
0
 10
3
 20
981
 11
0
 21
981
  0
LINE
  8
0
 10
0
 20
981
 11
0
 21
971
  0
LINE
  8
0
 10
0
 20
971
 11
3
 21
971
  0
LINE
  8
0
 10
3
 20
971
 11
3
 21
961
  0
LINE
  8
0
 10
3
 20
961
 11
0
 21
961
  0
LINE
  8
0
 10
0
 20
961
 11
0
 21
951
  0
LINE
  8
0
 10
0
 20
951
 11
3
 21
951
  0
LINE
  8
0
 10
3
 20
951
 11
3
 21
941
  0
LINE
  8
0
 10
3
 20
941
 11
0
 21
941
  0
LINE
  8
0
 10
0
 20
941
 11
0
 21
931
  0
LINE
  8
0
 10
0
 20
931
 11
3
 21
931
  0
LINE
  8
0
 10
3
 20
931
 11
3
 21
921
  0
LINE
  8
0
 10
3
 20
921
 11
0
 21
921
  0
LINE
  8
0
 10
0
 20
921
 11
0
 21
911
  0
LINE
  8
0
 10
0
 20
911
 11
3
 21
911
  0
LINE
  8
0
 10
3
 20
911
 11
3
 21
901
  0
LINE
  8
0
 10
3
 20
901
 11
0
 21
901
  0
LINE
  8
0
 10
0
 20
901
 11
0
 21
891
  0
LINE
  8
0
 10
0
 20
891
 11
3
 21
891
  0
LINE
  8
0
 10
3
 20
891
 11
3
 21
881
  0
LINE
  8
0
 10
3
 20
881
 11
0
 21
881
  0
LINE
  8
0
 10
0
 20
881
 11
0
 21
871
  0
LINE
  8
0
 10
0
 20
871
 11
3
 21
871
  0
LINE
  8
0
 10
3
 20
871
 11
3
 21
861
  0
LINE
  8
0
 10
3
 20
861
 11
0
 21
861
  0
LINE
  8
0
 10
0
 20
861
 11
0
 21
851
  0
LINE
  8
0
 10
0
 20
851
 11
3
 21
851
  0
LINE
  8
0
 10
3
 20
851
 11
3
 21
841
  0
LINE
  8
0
 10
3
 20
841
 11
0
 21
841
  0
LINE
  8
0
 10
0
 20
841
 11
0
 21
831
  0
LINE
  8
0
 10
0
 20
831
 11
3
 21
831
  0
LINE
  8
0
 10
3
 20
831
 11
3
 21
821
  0
LINE
  8
0
 10
3
 20
821
 11
0
 21
821
  0
LINE
  8
0
 10
0
 20
821
 11
0
 21
811
  0
LINE
  8
0
 10
0
 20
811
 11
3
 21
811
  0
LINE
  8
0
 10
3
 20
811
 11
3
 21
801
  0
LINE
  8
0
 10
3
 20
801
 11
0
 21
801
  0
LINE
  8
0
 10
0
 20
801
 11
0
 21
791
  0
LINE
  8
0
 10
0
 20
791
 11
3
 21
791
  0
LINE
  8
0
 10
3
 20
791
 11
3
 21
781
  0
LINE
  8
0
 10
3
 20
781
 11
0
 21
781
  0
LINE
  8
0
 10
0
 20
781
 11
0
 21
771
  0
LINE
  8
0
 10
0
 20
771
 11
3
 21
771
  0
LINE
  8
0
 10
3
 20
771
 11
3
 21
761
  0
LINE
  8
0
 10
3
 20
761
 11
0
 21
761
  0
LINE
  8
0
 10
0
 20
761
 11
0
 21
751
  0
LINE
  8
0
 10
0
 20
751
 11
3
 21
751
  0
LINE
  8
0
 10
3
 20
751
 11
3
 21
741
  0
LINE
  8
0
 10
3
 20
741
 11
0
 21
741
  0
LINE
  8
0
 10
0
 20
741
 11
0
 21
731
  0
LINE
  8
0
 10
0
 20
731
 11
3
 21
731
  0
LINE
  8
0
 10
3
 20
731
 11
3
 21
721
  0
LINE
  8
0
 10
3
 20
721
 11
0
 21
721
  0
LINE
  8
0
 10
0
 20
721
 11
0
 21
711
  0
LINE
  8
0
 10
0
 20
711
 11
3
 21
711
  0
LINE
  8
0
 10
3
 20
711
 11
3
 21
701
  0
LINE
  8
0
 10
3
 20
701
 11
0
 21
701
  0
LINE
  8
0
 10
0
 20
701
 11
0
 21
691
  0
LINE
  8
0
 10
0
 20
691
 11
3
 21
691
  0
LINE
  8
0
 10
3
 20
691
 11
3
 21
681
  0
LINE
  8
0
 10
3
 20
681
 11
0
 21
681
  0
LINE
  8
0
 10
0
 20
681
 11
0
 21
671
  0
LINE
  8
0
 10
0
 20
671
 11
3
 21
671
  0
LINE
  8
0
 10
3
 20
671
 11
3
 21
661
  0
LINE
  8
0
 10
3
 20
661
 11
0
 21
661
  0
LINE
  8
0
 10
0
 20
661
 11
0
 21
651
  0
LINE
  8
0
 10
0
 20
651
 11
3
 21
651
  0
LINE
  8
0
 10
3
 20
651
 11
3
 21
641
  0
LINE
  8
0
 10
3
 20
641
 11
0
 21
641
  0
LINE
  8
0
 10
0
 20
641
 11
0
 21
631
  0
LINE
  8
0
 10
0
 20
631
 11
3
 21
631
  0
LINE
  8
0
 10
3
 20
631
 11
3
 21
621
  0
LINE
  8
0
 10
3
 20
621
 11
0
 21
621
  0
LINE
  8
0
 10
0
 20
621
 11
0
 21
611
  0
LINE
  8
0
 10
0
 20
611
 11
3
 21
611
  0
LINE
  8
0
 10
3
 20
611
 11
3
 21
604
  0
LINE
  8
0
 10
3
 20
604
 11
10
 21
604
  0
LINE
  8
0
 10
10
 20
604
 11
10
 21
601
  0
LINE
  8
0
 10
10
 20
601
 11
20
 21
601
  0
LINE
  8
0
 10
20
 20
601
 11
20
 21
604
  0
LINE
  8
0
 10
248.95
 20
1146.25
 11
248.95
 21
1155.75
  0
LINE
  8
0
 10
248.95
 20
1155.75
 11
251.05
 21
1155.75
  0
LINE
  8
0
 10
251.05
 20
1155.75
 11
251.05
 21
1146.25
  0
LINE
  8
0
 10
251.05
 20
1146.25
 11
248.95
 21
1146.25
  0
LINE
  8
0
 10
148.95
 20
1146.25
 11
148.95
 21
1155.75
  0
LINE
  8
0
 10
148.95
 20
1155.75
 11
151.05
 21
1155.75
  0
LINE
  8
0
 10
151.05
 20
1155.75
 11
151.05
 21
1146.25
  0
LINE
  8
0
 10
151.05
 20
1146.25
 11
148.95
 21
1146.25
  0
LINE
  8
0
 10
48.95
 20
1146.25
 11
48.95
 21
1155.75
  0
LINE
  8
0
 10
48.95
 20
1155.75
 11
51.05
 21
1155.75
  0
LINE
  8
0
 10
51.05
 20
1155.75
 11
51.05
 21
1146.25
  0
LINE
  8
0
 10
51.05
 20
1146.25
 11
48.95
 21
1146.25
  0
LINE
  8
0
 10
248.95
 20
1046.25
 11
248.95
 21
1055.75
  0
LINE
  8
0
 10
248.95
 20
1055.75
 11
251.05
 21
1055.75
  0
LINE
  8
0
 10
251.05
 20
1055.75
 11
251.05
 21
1046.25
  0
LINE
  8
0
 10
251.05
 20
1046.25
 11
248.95
 21
1046.25
  0
LINE
  8
0
 10
48.95
 20
1046.25
 11
48.95
 21
1055.75
  0
LINE
  8
0
 10
48.95
 20
1055.75
 11
51.05
 21
1055.75
  0
LINE
  8
0
 10
51.05
 20
1055.75
 11
51.05
 21
1046.25
  0
LINE
  8
0
 10
51.05
 20
1046.25
 11
48.95
 21
1046.25
  0
LINE
  8
0
 10
148.95
 20
1046.25
 11
148.95
 21
1055.75
  0
LINE
  8
0
 10
148.95
 20
1055.75
 11
151.05
 21
1055.75
  0
LINE
  8
0
 10
151.05
 20
1055.75
 11
151.05
 21
1046.25
  0
LINE
  8
0
 10
151.05
 20
1046.25
 11
148.95
 21
1046.25
  0
LINE
  8
0
 10
48.95
 20
946.25
 11
48.95
 21
955.75
  0
LINE
  8
0
 10
48.95
 20
955.75
 11
51.05
 21
955.75
  0
LINE
  8
0
 10
51.05
 20
955.75
 11
51.05
 21
946.25
  0
LINE
  8
0
 10
51.05
 20
946.25
 11
48.95
 21
946.25
  0
LINE
  8
0
 10
248.95
 20
946.25
 11
248.95
 21
955.75
  0
LINE
  8
0
 10
248.95
 20
955.75
 11
251.05
 21
955.75
  0
LINE
  8
0
 10
251.05
 20
955.75
 11
251.05
 21
946.25
  0
LINE
  8
0
 10
251.05
 20
946.25
 11
248.95
 21
946.25
  0
LINE
  8
0
 10
148.95
 20
946.25
 11
148.95
 21
955.75
  0
LINE
  8
0
 10
148.95
 20
955.75
 11
151.05
 21
955.75
  0
LINE
  8
0
 10
151.05
 20
955.75
 11
151.05
 21
946.25
  0
LINE
  8
0
 10
151.05
 20
946.25
 11
148.95
 21
946.25
  0
LINE
  8
0
 10
348.95
 20
896.25
 11
348.95
 21
905.75
  0
LINE
  8
0
 10
348.95
 20
905.75
 11
351.05
 21
905.75
  0
LINE
  8
0
 10
351.05
 20
905.75
 11
351.05
 21
896.25
  0
LINE
  8
0
 10
351.05
 20
896.25
 11
348.95
 21
896.25
  0
LINE
  8
0
 10
248.95
 20
846.25
 11
248.95
 21
855.75
  0
LINE
  8
0
 10
248.95
 20
855.75
 11
251.05
 21
855.75
  0
LINE
  8
0
 10
251.05
 20
855.75
 11
251.05
 21
846.25
  0
LINE
  8
0
 10
251.05
 20
846.25
 11
248.95
 21
846.25
  0
LINE
  8
0
 10
148.95
 20
846.25
 11
148.95
 21
855.75
  0
LINE
  8
0
 10
148.95
 20
855.75
 11
151.05
 21
855.75
  0
LINE
  8
0
 10
151.05
 20
855.75
 11
151.05
 21
846.25
  0
LINE
  8
0
 10
151.05
 20
846.25
 11
148.95
 21
846.25
  0
LINE
  8
0
 10
48.95
 20
846.25
 11
48.95
 21
855.75
  0
LINE
  8
0
 10
48.95
 20
855.75
 11
51.05
 21
855.75
  0
LINE
  8
0
 10
51.05
 20
855.75
 11
51.05
 21
846.25
  0
LINE
  8
0
 10
51.05
 20
846.25
 11
48.95
 21
846.25
  0
LINE
  8
0
 10
48.95
 20
746.25
 11
48.95
 21
755.75
  0
LINE
  8
0
 10
48.95
 20
755.75
 11
51.05
 21
755.75
  0
LINE
  8
0
 10
51.05
 20
755.75
 11
51.05
 21
746.25
  0
LINE
  8
0
 10
51.05
 20
746.25
 11
48.95
 21
746.25
  0
LINE
  8
0
 10
248.95
 20
746.25
 11
248.95
 21
755.75
  0
LINE
  8
0
 10
248.95
 20
755.75
 11
251.05
 21
755.75
  0
LINE
  8
0
 10
251.05
 20
755.75
 11
251.05
 21
746.25
  0
LINE
  8
0
 10
251.05
 20
746.25
 11
248.95
 21
746.25
  0
LINE
  8
0
 10
148.95
 20
746.25
 11
148.95
 21
755.75
  0
LINE
  8
0
 10
148.95
 20
755.75
 11
151.05
 21
755.75
  0
LINE
  8
0
 10
151.05
 20
755.75
 11
151.05
 21
746.25
  0
LINE
  8
0
 10
151.05
 20
746.25
 11
148.95
 21
746.25
  0
LINE
  8
0
 10
248.95
 20
646.25
 11
248.95
 21
655.75
  0
LINE
  8
0
 10
248.95
 20
655.75
 11
251.05
 21
655.75
  0
LINE
  8
0
 10
251.05
 20
655.75
 11
251.05
 21
646.25
  0
LINE
  8
0
 10
251.05
 20
646.25
 11
248.95
 21
646.25
  0
LINE
  8
0
 10
148.95
 20
646.25
 11
148.95
 21
655.75
  0
LINE
  8
0
 10
148.95
 20
655.75
 11
151.05
 21
655.75
  0
LINE
  8
0
 10
151.05
 20
655.75
 11
151.05
 21
646.25
  0
LINE
  8
0
 10
151.05
 20
646.25
 11
148.95
 21
646.25
  0
LINE
  8
0
 10
48.95
 20
646.25
 11
48.95
 21
655.75
  0
LINE
  8
0
 10
48.95
 20
655.75
 11
51.05
 21
655.75
  0
LINE
  8
0
 10
51.05
 20
655.75
 11
51.05
 21
646.25
  0
LINE
  8
0
 10
51.05
 20
646.25
 11
48.95
 21
646.25
  0
LINE
  8
0
 10
663
 20
1201
 11
663
 21
1198
  0
LINE
  8
0
 10
663
 20
1198
 11
653
 21
1198
  0
LINE
  8
0
 10
653
 20
1198
 11
653
 21
1201
  0
LINE
  8
0
 10
653
 20
1201
 11
643
 21
1201
  0
LINE
  8
0
 10
643
 20
1201
 11
643
 21
1198
  0
LINE
  8
0
 10
643
 20
1198
 11
633
 21
1198
  0
LINE
  8
0
 10
633
 20
1198
 11
633
 21
1201
  0
LINE
  8
0
 10
633
 20
1201
 11
623
 21
1201
  0
LINE
  8
0
 10
623
 20
1201
 11
623
 21
1198
  0
LINE
  8
0
 10
623
 20
1198
 11
613
 21
1198
  0
LINE
  8
0
 10
613
 20
1198
 11
613
 21
1201
  0
LINE
  8
0
 10
613
 20
1201
 11
603
 21
1201
  0
LINE
  8
0
 10
603
 20
1201
 11
603
 21
1198
  0
LINE
  8
0
 10
603
 20
1198
 11
593
 21
1198
  0
LINE
  8
0
 10
593
 20
1198
 11
593
 21
1201
  0
LINE
  8
0
 10
593
 20
1201
 11
583
 21
1201
  0
LINE
  8
0
 10
583
 20
1201
 11
583
 21
1198
  0
LINE
  8
0
 10
583
 20
1198
 11
573
 21
1198
  0
LINE
  8
0
 10
573
 20
1198
 11
573
 21
1201
  0
LINE
  8
0
 10
573
 20
1201
 11
563
 21
1201
  0
LINE
  8
0
 10
563
 20
1201
 11
563
 21
1198
  0
LINE
  8
0
 10
563
 20
1198
 11
553
 21
1198
  0
LINE
  8
0
 10
553
 20
1198
 11
553
 21
1201
  0
LINE
  8
0
 10
553
 20
1201
 11
543
 21
1201
  0
LINE
  8
0
 10
543
 20
1201
 11
543
 21
1198
  0
LINE
  8
0
 10
543
 20
1198
 11
533
 21
1198
  0
LINE
  8
0
 10
533
 20
1198
 11
533
 21
1201
  0
LINE
  8
0
 10
533
 20
1201
 11
523
 21
1201
  0
LINE
  8
0
 10
523
 20
1201
 11
523
 21
1198
  0
LINE
  8
0
 10
523
 20
1198
 11
513
 21
1198
  0
LINE
  8
0
 10
513
 20
1198
 11
513
 21
1201
  0
LINE
  8
0
 10
513
 20
1201
 11
503
 21
1201
  0
LINE
  8
0
 10
503
 20
1201
 11
503
 21
1198
  0
LINE
  8
0
 10
503
 20
1198
 11
493
 21
1198
  0
LINE
  8
0
 10
493
 20
1198
 11
493
 21
1201
  0
LINE
  8
0
 10
493
 20
1201
 11
483
 21
1201
  0
LINE
  8
0
 10
483
 20
1201
 11
483
 21
1198
  0
LINE
  8
0
 10
483
 20
1198
 11
473
 21
1198
  0
LINE
  8
0
 10
473
 20
1198
 11
473
 21
1201
  0
LINE
  8
0
 10
473
 20
1201
 11
463
 21
1201
  0
LINE
  8
0
 10
463
 20
1201
 11
463
 21
1191
  0
LINE
  8
0
 10
463
 20
1191
 11
466
 21
1191
  0
LINE
  8
0
 10
466
 20
1191
 11
466
 21
1181
  0
LINE
  8
0
 10
466
 20
1181
 11
463
 21
1181
  0
LINE
  8
0
 10
463
 20
1181
 11
463
 21
1171
  0
LINE
  8
0
 10
463
 20
1171
 11
466
 21
1171
  0
LINE
  8
0
 10
466
 20
1171
 11
466
 21
1161
  0
LINE
  8
0
 10
466
 20
1161
 11
463
 21
1161
  0
LINE
  8
0
 10
463
 20
1161
 11
463
 21
1151
  0
LINE
  8
0
 10
463
 20
1151
 11
466
 21
1151
  0
LINE
  8
0
 10
466
 20
1151
 11
466
 21
1141
  0
LINE
  8
0
 10
466
 20
1141
 11
463
 21
1141
  0
LINE
  8
0
 10
463
 20
1141
 11
463
 21
1131
  0
LINE
  8
0
 10
463
 20
1131
 11
466
 21
1131
  0
LINE
  8
0
 10
466
 20
1131
 11
466
 21
1121
  0
LINE
  8
0
 10
466
 20
1121
 11
463
 21
1121
  0
LINE
  8
0
 10
463
 20
1121
 11
463
 21
1111
  0
LINE
  8
0
 10
463
 20
1111
 11
466
 21
1111
  0
LINE
  8
0
 10
466
 20
1111
 11
466
 21
1101
  0
LINE
  8
0
 10
466
 20
1101
 11
463
 21
1101
  0
LINE
  8
0
 10
463
 20
1101
 11
463
 21
1091
  0
LINE
  8
0
 10
463
 20
1091
 11
466
 21
1091
  0
LINE
  8
0
 10
466
 20
1091
 11
466
 21
1081
  0
LINE
  8
0
 10
466
 20
1081
 11
463
 21
1081
  0
LINE
  8
0
 10
463
 20
1081
 11
463
 21
1071
  0
LINE
  8
0
 10
463
 20
1071
 11
466
 21
1071
  0
LINE
  8
0
 10
466
 20
1071
 11
466
 21
1061
  0
LINE
  8
0
 10
466
 20
1061
 11
463
 21
1061
  0
LINE
  8
0
 10
463
 20
1061
 11
463
 21
1051
  0
LINE
  8
0
 10
463
 20
1051
 11
466
 21
1051
  0
LINE
  8
0
 10
466
 20
1051
 11
466
 21
1041
  0
LINE
  8
0
 10
466
 20
1041
 11
463
 21
1041
  0
LINE
  8
0
 10
463
 20
1041
 11
463
 21
1031
  0
LINE
  8
0
 10
463
 20
1031
 11
466
 21
1031
  0
LINE
  8
0
 10
466
 20
1031
 11
466
 21
1021
  0
LINE
  8
0
 10
466
 20
1021
 11
463
 21
1021
  0
LINE
  8
0
 10
463
 20
1021
 11
463
 21
1011
  0
LINE
  8
0
 10
463
 20
1011
 11
466
 21
1011
  0
LINE
  8
0
 10
466
 20
1011
 11
466
 21
1001
  0
LINE
  8
0
 10
466
 20
1001
 11
463
 21
1001
  0
LINE
  8
0
 10
463
 20
1001
 11
463
 21
991
  0
LINE
  8
0
 10
463
 20
991
 11
466
 21
991
  0
LINE
  8
0
 10
466
 20
991
 11
466
 21
981
  0
LINE
  8
0
 10
466
 20
981
 11
463
 21
981
  0
LINE
  8
0
 10
463
 20
981
 11
463
 21
971
  0
LINE
  8
0
 10
463
 20
971
 11
466
 21
971
  0
LINE
  8
0
 10
466
 20
971
 11
466
 21
961
  0
LINE
  8
0
 10
466
 20
961
 11
463
 21
961
  0
LINE
  8
0
 10
463
 20
961
 11
463
 21
951
  0
LINE
  8
0
 10
463
 20
951
 11
466
 21
951
  0
LINE
  8
0
 10
466
 20
951
 11
466
 21
941
  0
LINE
  8
0
 10
466
 20
941
 11
463
 21
941
  0
LINE
  8
0
 10
463
 20
941
 11
463
 21
931
  0
LINE
  8
0
 10
463
 20
931
 11
466
 21
931
  0
LINE
  8
0
 10
466
 20
931
 11
466
 21
921
  0
LINE
  8
0
 10
466
 20
921
 11
463
 21
921
  0
LINE
  8
0
 10
463
 20
921
 11
463
 21
911
  0
LINE
  8
0
 10
463
 20
911
 11
466
 21
911
  0
LINE
  8
0
 10
466
 20
911
 11
466
 21
901
  0
LINE
  8
0
 10
466
 20
901
 11
463
 21
901
  0
LINE
  8
0
 10
463
 20
901
 11
463
 21
891
  0
LINE
  8
0
 10
463
 20
891
 11
466
 21
891
  0
LINE
  8
0
 10
466
 20
891
 11
466
 21
881
  0
LINE
  8
0
 10
466
 20
881
 11
463
 21
881
  0
LINE
  8
0
 10
463
 20
881
 11
463
 21
871
  0
LINE
  8
0
 10
463
 20
871
 11
466
 21
871
  0
LINE
  8
0
 10
466
 20
871
 11
466
 21
861
  0
LINE
  8
0
 10
466
 20
861
 11
463
 21
861
  0
LINE
  8
0
 10
463
 20
861
 11
463
 21
851
  0
LINE
  8
0
 10
463
 20
851
 11
466
 21
851
  0
LINE
  8
0
 10
466
 20
851
 11
466
 21
841
  0
LINE
  8
0
 10
466
 20
841
 11
463
 21
841
  0
LINE
  8
0
 10
463
 20
841
 11
463
 21
831
  0
LINE
  8
0
 10
463
 20
831
 11
466
 21
831
  0
LINE
  8
0
 10
466
 20
831
 11
466
 21
821
  0
LINE
  8
0
 10
466
 20
821
 11
463
 21
821
  0
LINE
  8
0
 10
463
 20
821
 11
463
 21
811
  0
LINE
  8
0
 10
463
 20
811
 11
466
 21
811
  0
LINE
  8
0
 10
466
 20
811
 11
466
 21
801
  0
LINE
  8
0
 10
466
 20
801
 11
463
 21
801
  0
LINE
  8
0
 10
463
 20
801
 11
463
 21
791
  0
LINE
  8
0
 10
463
 20
791
 11
466
 21
791
  0
LINE
  8
0
 10
466
 20
791
 11
466
 21
781
  0
LINE
  8
0
 10
466
 20
781
 11
463
 21
781
  0
LINE
  8
0
 10
463
 20
781
 11
463
 21
771
  0
LINE
  8
0
 10
463
 20
771
 11
466
 21
771
  0
LINE
  8
0
 10
466
 20
771
 11
466
 21
761
  0
LINE
  8
0
 10
466
 20
761
 11
463
 21
761
  0
LINE
  8
0
 10
463
 20
761
 11
463
 21
751
  0
LINE
  8
0
 10
463
 20
751
 11
466
 21
751
  0
LINE
  8
0
 10
466
 20
751
 11
466
 21
741
  0
LINE
  8
0
 10
466
 20
741
 11
463
 21
741
  0
LINE
  8
0
 10
463
 20
741
 11
463
 21
731
  0
LINE
  8
0
 10
463
 20
731
 11
466
 21
731
  0
LINE
  8
0
 10
466
 20
731
 11
466
 21
721
  0
LINE
  8
0
 10
466
 20
721
 11
463
 21
721
  0
LINE
  8
0
 10
463
 20
721
 11
463
 21
711
  0
LINE
  8
0
 10
463
 20
711
 11
466
 21
711
  0
LINE
  8
0
 10
466
 20
711
 11
466
 21
701
  0
LINE
  8
0
 10
466
 20
701
 11
463
 21
701
  0
LINE
  8
0
 10
463
 20
701
 11
463
 21
691
  0
LINE
  8
0
 10
463
 20
691
 11
466
 21
691
  0
LINE
  8
0
 10
466
 20
691
 11
466
 21
681
  0
LINE
  8
0
 10
466
 20
681
 11
463
 21
681
  0
LINE
  8
0
 10
463
 20
681
 11
463
 21
671
  0
LINE
  8
0
 10
463
 20
671
 11
466
 21
671
  0
LINE
  8
0
 10
466
 20
671
 11
466
 21
661
  0
LINE
  8
0
 10
466
 20
661
 11
463
 21
661
  0
LINE
  8
0
 10
463
 20
661
 11
463
 21
651
  0
LINE
  8
0
 10
463
 20
651
 11
466
 21
651
  0
LINE
  8
0
 10
466
 20
651
 11
466
 21
641
  0
LINE
  8
0
 10
466
 20
641
 11
463
 21
641
  0
LINE
  8
0
 10
463
 20
641
 11
463
 21
631
  0
LINE
  8
0
 10
463
 20
631
 11
466
 21
631
  0
LINE
  8
0
 10
466
 20
631
 11
466
 21
621
  0
LINE
  8
0
 10
466
 20
621
 11
463
 21
621
  0
LINE
  8
0
 10
463
 20
621
 11
463
 21
611
  0
LINE
  8
0
 10
463
 20
611
 11
466
 21
611
  0
LINE
  8
0
 10
466
 20
611
 11
466
 21
604
  0
LINE
  8
0
 10
466
 20
604
 11
473
 21
604
  0
LINE
  8
0
 10
473
 20
604
 11
473
 21
601
  0
LINE
  8
0
 10
473
 20
601
 11
483
 21
601
  0
LINE
  8
0
 10
483
 20
601
 11
483
 21
604
  0
LINE
  8
0
 10
483
 20
604
 11
493
 21
604
  0
LINE
  8
0
 10
493
 20
604
 11
493
 21
601
  0
LINE
  8
0
 10
493
 20
601
 11
503
 21
601
  0
LINE
  8
0
 10
503
 20
601
 11
503
 21
604
  0
LINE
  8
0
 10
503
 20
604
 11
513
 21
604
  0
LINE
  8
0
 10
513
 20
604
 11
513
 21
601
  0
LINE
  8
0
 10
513
 20
601
 11
523
 21
601
  0
LINE
  8
0
 10
523
 20
601
 11
523
 21
604
  0
LINE
  8
0
 10
523
 20
604
 11
533
 21
604
  0
LINE
  8
0
 10
533
 20
604
 11
533
 21
601
  0
LINE
  8
0
 10
533
 20
601
 11
543
 21
601
  0
LINE
  8
0
 10
543
 20
601
 11
543
 21
604
  0
LINE
  8
0
 10
543
 20
604
 11
553
 21
604
  0
LINE
  8
0
 10
553
 20
604
 11
553
 21
601
  0
LINE
  8
0
 10
553
 20
601
 11
563
 21
601
  0
LINE
  8
0
 10
563
 20
601
 11
563
 21
604
  0
LINE
  8
0
 10
563
 20
604
 11
573
 21
604
  0
LINE
  8
0
 10
573
 20
604
 11
573
 21
601
  0
LINE
  8
0
 10
573
 20
601
 11
583
 21
601
  0
LINE
  8
0
 10
583
 20
601
 11
583
 21
604
  0
LINE
  8
0
 10
583
 20
604
 11
593
 21
604
  0
LINE
  8
0
 10
593
 20
604
 11
593
 21
601
  0
LINE
  8
0
 10
593
 20
601
 11
603
 21
601
  0
LINE
  8
0
 10
603
 20
601
 11
603
 21
604
  0
LINE
  8
0
 10
603
 20
604
 11
613
 21
604
  0
LINE
  8
0
 10
613
 20
604
 11
613
 21
601
  0
LINE
  8
0
 10
613
 20
601
 11
623
 21
601
  0
LINE
  8
0
 10
623
 20
601
 11
623
 21
604
  0
LINE
  8
0
 10
623
 20
604
 11
633
 21
604
  0
LINE
  8
0
 10
633
 20
604
 11
633
 21
601
  0
LINE
  8
0
 10
633
 20
601
 11
643
 21
601
  0
LINE
  8
0
 10
643
 20
601
 11
643
 21
604
  0
LINE
  8
0
 10
643
 20
604
 11
653
 21
604
  0
LINE
  8
0
 10
653
 20
604
 11
653
 21
601
  0
LINE
  8
0
 10
653
 20
601
 11
663
 21
601
  0
LINE
  8
0
 10
663
 20
601
 11
663
 21
604
  0
LINE
  8
0
 10
663
 20
604
 11
673
 21
604
  0
LINE
  8
0
 10
673
 20
604
 11
673
 21
601
  0
LINE
  8
0
 10
673
 20
601
 11
683
 21
601
  0
LINE
  8
0
 10
683
 20
601
 11
683
 21
604
  0
LINE
  8
0
 10
683
 20
604
 11
693
 21
604
  0
LINE
  8
0
 10
693
 20
604
 11
693
 21
601
  0
LINE
  8
0
 10
693
 20
601
 11
703
 21
601
  0
LINE
  8
0
 10
703
 20
601
 11
703
 21
604
  0
LINE
  8
0
 10
703
 20
604
 11
713
 21
604
  0
LINE
  8
0
 10
713
 20
604
 11
713
 21
601
  0
LINE
  8
0
 10
713
 20
601
 11
723
 21
601
  0
LINE
  8
0
 10
723
 20
601
 11
723
 21
604
  0
LINE
  8
0
 10
723
 20
604
 11
733
 21
604
  0
LINE
  8
0
 10
733
 20
604
 11
733
 21
601
  0
LINE
  8
0
 10
733
 20
601
 11
743
 21
601
  0
LINE
  8
0
 10
743
 20
601
 11
743
 21
604
  0
LINE
  8
0
 10
743
 20
604
 11
753
 21
604
  0
LINE
  8
0
 10
753
 20
604
 11
753
 21
601
  0
LINE
  8
0
 10
753
 20
601
 11
763
 21
601
  0
LINE
  8
0
 10
763
 20
601
 11
763
 21
604
  0
LINE
  8
0
 10
763
 20
604
 11
773
 21
604
  0
LINE
  8
0
 10
773
 20
604
 11
773
 21
601
  0
LINE
  8
0
 10
773
 20
601
 11
783
 21
601
  0
LINE
  8
0
 10
783
 20
601
 11
783
 21
604
  0
LINE
  8
0
 10
783
 20
604
 11
793
 21
604
  0
LINE
  8
0
 10
793
 20
604
 11
793
 21
601
  0
LINE
  8
0
 10
793
 20
601
 11
803
 21
601
  0
LINE
  8
0
 10
803
 20
601
 11
803
 21
604
  0
LINE
  8
0
 10
803
 20
604
 11
813
 21
604
  0
LINE
  8
0
 10
813
 20
604
 11
813
 21
601
  0
LINE
  8
0
 10
813
 20
601
 11
823
 21
601
  0
LINE
  8
0
 10
823
 20
601
 11
823
 21
604
  0
LINE
  8
0
 10
823
 20
604
 11
833
 21
604
  0
LINE
  8
0
 10
833
 20
604
 11
833
 21
601
  0
LINE
  8
0
 10
833
 20
601
 11
843
 21
601
  0
LINE
  8
0
 10
843
 20
601
 11
843
 21
604
  0
LINE
  8
0
 10
843
 20
604
 11
853
 21
604
  0
LINE
  8
0
 10
853
 20
604
 11
853
 21
601
  0
LINE
  8
0
 10
853
 20
601
 11
863
 21
601
  0
LINE
  8
0
 10
863
 20
601
 11
863
 21
611
  0
LINE
  8
0
 10
863
 20
611
 11
860
 21
611
  0
LINE
  8
0
 10
860
 20
611
 11
860
 21
621
  0
LINE
  8
0
 10
860
 20
621
 11
863
 21
621
  0
LINE
  8
0
 10
863
 20
621
 11
863
 21
631
  0
LINE
  8
0
 10
863
 20
631
 11
860
 21
631
  0
LINE
  8
0
 10
860
 20
631
 11
860
 21
641
  0
LINE
  8
0
 10
860
 20
641
 11
863
 21
641
  0
LINE
  8
0
 10
863
 20
641
 11
863
 21
651
  0
LINE
  8
0
 10
863
 20
651
 11
860
 21
651
  0
LINE
  8
0
 10
860
 20
651
 11
860
 21
661
  0
LINE
  8
0
 10
860
 20
661
 11
863
 21
661
  0
LINE
  8
0
 10
863
 20
661
 11
863
 21
671
  0
LINE
  8
0
 10
863
 20
671
 11
860
 21
671
  0
LINE
  8
0
 10
860
 20
671
 11
860
 21
681
  0
LINE
  8
0
 10
860
 20
681
 11
863
 21
681
  0
LINE
  8
0
 10
863
 20
681
 11
863
 21
691
  0
LINE
  8
0
 10
863
 20
691
 11
860
 21
691
  0
LINE
  8
0
 10
860
 20
691
 11
860
 21
701
  0
LINE
  8
0
 10
860
 20
701
 11
863
 21
701
  0
LINE
  8
0
 10
863
 20
701
 11
863
 21
711
  0
LINE
  8
0
 10
863
 20
711
 11
860
 21
711
  0
LINE
  8
0
 10
860
 20
711
 11
860
 21
721
  0
LINE
  8
0
 10
860
 20
721
 11
863
 21
721
  0
LINE
  8
0
 10
863
 20
721
 11
863
 21
731
  0
LINE
  8
0
 10
863
 20
731
 11
860
 21
731
  0
LINE
  8
0
 10
860
 20
731
 11
860
 21
741
  0
LINE
  8
0
 10
860
 20
741
 11
863
 21
741
  0
LINE
  8
0
 10
863
 20
741
 11
863
 21
751
  0
LINE
  8
0
 10
863
 20
751
 11
860
 21
751
  0
LINE
  8
0
 10
860
 20
751
 11
860
 21
761
  0
LINE
  8
0
 10
860
 20
761
 11
863
 21
761
  0
LINE
  8
0
 10
863
 20
761
 11
863
 21
771
  0
LINE
  8
0
 10
863
 20
771
 11
860
 21
771
  0
LINE
  8
0
 10
860
 20
771
 11
860
 21
781
  0
LINE
  8
0
 10
860
 20
781
 11
863
 21
781
  0
LINE
  8
0
 10
863
 20
781
 11
863
 21
791
  0
LINE
  8
0
 10
863
 20
791
 11
860
 21
791
  0
LINE
  8
0
 10
860
 20
791
 11
860
 21
801
  0
LINE
  8
0
 10
860
 20
801
 11
863
 21
801
  0
LINE
  8
0
 10
863
 20
801
 11
863
 21
811
  0
LINE
  8
0
 10
863
 20
811
 11
860
 21
811
  0
LINE
  8
0
 10
860
 20
811
 11
860
 21
821
  0
LINE
  8
0
 10
860
 20
821
 11
863
 21
821
  0
LINE
  8
0
 10
863
 20
821
 11
863
 21
831
  0
LINE
  8
0
 10
863
 20
831
 11
860
 21
831
  0
LINE
  8
0
 10
860
 20
831
 11
860
 21
841
  0
LINE
  8
0
 10
860
 20
841
 11
863
 21
841
  0
LINE
  8
0
 10
863
 20
841
 11
863
 21
851
  0
LINE
  8
0
 10
863
 20
851
 11
860
 21
851
  0
LINE
  8
0
 10
860
 20
851
 11
860
 21
861
  0
LINE
  8
0
 10
860
 20
861
 11
863
 21
861
  0
LINE
  8
0
 10
863
 20
861
 11
863
 21
871
  0
LINE
  8
0
 10
863
 20
871
 11
860
 21
871
  0
LINE
  8
0
 10
860
 20
871
 11
860
 21
881
  0
LINE
  8
0
 10
860
 20
881
 11
863
 21
881
  0
LINE
  8
0
 10
863
 20
881
 11
863
 21
891
  0
LINE
  8
0
 10
863
 20
891
 11
860
 21
891
  0
LINE
  8
0
 10
860
 20
891
 11
860
 21
901
  0
LINE
  8
0
 10
860
 20
901
 11
863
 21
901
  0
LINE
  8
0
 10
863
 20
901
 11
863
 21
911
  0
LINE
  8
0
 10
863
 20
911
 11
860
 21
911
  0
LINE
  8
0
 10
860
 20
911
 11
860
 21
921
  0
LINE
  8
0
 10
860
 20
921
 11
863
 21
921
  0
LINE
  8
0
 10
863
 20
921
 11
863
 21
931
  0
LINE
  8
0
 10
863
 20
931
 11
860
 21
931
  0
LINE
  8
0
 10
860
 20
931
 11
860
 21
941
  0
LINE
  8
0
 10
860
 20
941
 11
863
 21
941
  0
LINE
  8
0
 10
863
 20
941
 11
863
 21
951
  0
LINE
  8
0
 10
863
 20
951
 11
860
 21
951
  0
LINE
  8
0
 10
860
 20
951
 11
860
 21
961
  0
LINE
  8
0
 10
860
 20
961
 11
863
 21
961
  0
LINE
  8
0
 10
863
 20
961
 11
863
 21
971
  0
LINE
  8
0
 10
863
 20
971
 11
860
 21
971
  0
LINE
  8
0
 10
860
 20
971
 11
860
 21
981
  0
LINE
  8
0
 10
860
 20
981
 11
863
 21
981
  0
LINE
  8
0
 10
863
 20
981
 11
863
 21
991
  0
LINE
  8
0
 10
863
 20
991
 11
860
 21
991
  0
LINE
  8
0
 10
860
 20
991
 11
860
 21
1001
  0
LINE
  8
0
 10
860
 20
1001
 11
863
 21
1001
  0
LINE
  8
0
 10
863
 20
1001
 11
863
 21
1011
  0
LINE
  8
0
 10
863
 20
1011
 11
860
 21
1011
  0
LINE
  8
0
 10
860
 20
1011
 11
860
 21
1021
  0
LINE
  8
0
 10
860
 20
1021
 11
863
 21
1021
  0
LINE
  8
0
 10
863
 20
1021
 11
863
 21
1031
  0
LINE
  8
0
 10
863
 20
1031
 11
860
 21
1031
  0
LINE
  8
0
 10
860
 20
1031
 11
860
 21
1041
  0
LINE
  8
0
 10
860
 20
1041
 11
863
 21
1041
  0
LINE
  8
0
 10
863
 20
1041
 11
863
 21
1051
  0
LINE
  8
0
 10
863
 20
1051
 11
860
 21
1051
  0
LINE
  8
0
 10
860
 20
1051
 11
860
 21
1061
  0
LINE
  8
0
 10
860
 20
1061
 11
863
 21
1061
  0
LINE
  8
0
 10
863
 20
1061
 11
863
 21
1071
  0
LINE
  8
0
 10
863
 20
1071
 11
860
 21
1071
  0
LINE
  8
0
 10
860
 20
1071
 11
860
 21
1081
  0
LINE
  8
0
 10
860
 20
1081
 11
863
 21
1081
  0
LINE
  8
0
 10
863
 20
1081
 11
863
 21
1091
  0
LINE
  8
0
 10
863
 20
1091
 11
860
 21
1091
  0
LINE
  8
0
 10
860
 20
1091
 11
860
 21
1101
  0
LINE
  8
0
 10
860
 20
1101
 11
863
 21
1101
  0
LINE
  8
0
 10
863
 20
1101
 11
863
 21
1111
  0
LINE
  8
0
 10
863
 20
1111
 11
860
 21
1111
  0
LINE
  8
0
 10
860
 20
1111
 11
860
 21
1121
  0
LINE
  8
0
 10
860
 20
1121
 11
863
 21
1121
  0
LINE
  8
0
 10
863
 20
1121
 11
863
 21
1131
  0
LINE
  8
0
 10
863
 20
1131
 11
860
 21
1131
  0
LINE
  8
0
 10
860
 20
1131
 11
860
 21
1141
  0
LINE
  8
0
 10
860
 20
1141
 11
863
 21
1141
  0
LINE
  8
0
 10
863
 20
1141
 11
863
 21
1151
  0
LINE
  8
0
 10
863
 20
1151
 11
860
 21
1151
  0
LINE
  8
0
 10
860
 20
1151
 11
860
 21
1161
  0
LINE
  8
0
 10
860
 20
1161
 11
863
 21
1161
  0
LINE
  8
0
 10
863
 20
1161
 11
863
 21
1171
  0
LINE
  8
0
 10
863
 20
1171
 11
860
 21
1171
  0
LINE
  8
0
 10
860
 20
1171
 11
860
 21
1181
  0
LINE
  8
0
 10
860
 20
1181
 11
863
 21
1181
  0
LINE
  8
0
 10
863
 20
1181
 11
863
 21
1191
  0
LINE
  8
0
 10
863
 20
1191
 11
860
 21
1191
  0
LINE
  8
0
 10
860
 20
1191
 11
860
 21
1198
  0
LINE
  8
0
 10
860
 20
1198
 11
853
 21
1198
  0
LINE
  8
0
 10
853
 20
1198
 11
853
 21
1201
  0
LINE
  8
0
 10
853
 20
1201
 11
843
 21
1201
  0
LINE
  8
0
 10
843
 20
1201
 11
843
 21
1198
  0
LINE
  8
0
 10
843
 20
1198
 11
833
 21
1198
  0
LINE
  8
0
 10
833
 20
1198
 11
833
 21
1201
  0
LINE
  8
0
 10
833
 20
1201
 11
823
 21
1201
  0
LINE
  8
0
 10
823
 20
1201
 11
823
 21
1198
  0
LINE
  8
0
 10
823
 20
1198
 11
813
 21
1198
  0
LINE
  8
0
 10
813
 20
1198
 11
813
 21
1201
  0
LINE
  8
0
 10
813
 20
1201
 11
803
 21
1201
  0
LINE
  8
0
 10
803
 20
1201
 11
803
 21
1198
  0
LINE
  8
0
 10
803
 20
1198
 11
793
 21
1198
  0
LINE
  8
0
 10
793
 20
1198
 11
793
 21
1201
  0
LINE
  8
0
 10
793
 20
1201
 11
783
 21
1201
  0
LINE
  8
0
 10
783
 20
1201
 11
783
 21
1198
  0
LINE
  8
0
 10
783
 20
1198
 11
773
 21
1198
  0
LINE
  8
0
 10
773
 20
1198
 11
773
 21
1201
  0
LINE
  8
0
 10
773
 20
1201
 11
763
 21
1201
  0
LINE
  8
0
 10
763
 20
1201
 11
763
 21
1198
  0
LINE
  8
0
 10
763
 20
1198
 11
753
 21
1198
  0
LINE
  8
0
 10
753
 20
1198
 11
753
 21
1201
  0
LINE
  8
0
 10
753
 20
1201
 11
743
 21
1201
  0
LINE
  8
0
 10
743
 20
1201
 11
743
 21
1198
  0
LINE
  8
0
 10
743
 20
1198
 11
733
 21
1198
  0
LINE
  8
0
 10
733
 20
1198
 11
733
 21
1201
  0
LINE
  8
0
 10
733
 20
1201
 11
723
 21
1201
  0
LINE
  8
0
 10
723
 20
1201
 11
723
 21
1198
  0
LINE
  8
0
 10
723
 20
1198
 11
713
 21
1198
  0
LINE
  8
0
 10
713
 20
1198
 11
713
 21
1201
  0
LINE
  8
0
 10
713
 20
1201
 11
703
 21
1201
  0
LINE
  8
0
 10
703
 20
1201
 11
703
 21
1198
  0
LINE
  8
0
 10
703
 20
1198
 11
693
 21
1198
  0
LINE
  8
0
 10
693
 20
1198
 11
693
 21
1201
  0
LINE
  8
0
 10
693
 20
1201
 11
683
 21
1201
  0
LINE
  8
0
 10
683
 20
1201
 11
683
 21
1198
  0
LINE
  8
0
 10
683
 20
1198
 11
673
 21
1198
  0
LINE
  8
0
 10
673
 20
1198
 11
673
 21
1201
  0
LINE
  8
0
 10
673
 20
1201
 11
663
 21
1201
  0
LINE
  8
0
 10
401
 20
1071
 11
404
 21
1071
  0
LINE
  8
0
 10
404
 20
1071
 11
404
 21
1061
  0
LINE
  8
0
 10
404
 20
1061
 11
401
 21
1061
  0
LINE
  8
0
 10
401
 20
1061
 11
401
 21
1051
  0
LINE
  8
0
 10
401
 20
1051
 11
404
 21
1051
  0
LINE
  8
0
 10
404
 20
1051
 11
404
 21
1041
  0
LINE
  8
0
 10
404
 20
1041
 11
401
 21
1041
  0
LINE
  8
0
 10
401
 20
1041
 11
401
 21
1031
  0
LINE
  8
0
 10
401
 20
1031
 11
404
 21
1031
  0
LINE
  8
0
 10
404
 20
1031
 11
404
 21
1021
  0
LINE
  8
0
 10
404
 20
1021
 11
401
 21
1021
  0
LINE
  8
0
 10
401
 20
1021
 11
401
 21
1011
  0
LINE
  8
0
 10
401
 20
1011
 11
404
 21
1011
  0
LINE
  8
0
 10
404
 20
1011
 11
404
 21
1001
  0
LINE
  8
0
 10
404
 20
1001
 11
401
 21
1001
  0
LINE
  8
0
 10
401
 20
1001
 11
401
 21
991
  0
LINE
  8
0
 10
401
 20
991
 11
404
 21
991
  0
LINE
  8
0
 10
404
 20
991
 11
404
 21
981
  0
LINE
  8
0
 10
404
 20
981
 11
401
 21
981
  0
LINE
  8
0
 10
401
 20
981
 11
401
 21
971
  0
LINE
  8
0
 10
401
 20
971
 11
404
 21
971
  0
LINE
  8
0
 10
404
 20
971
 11
404
 21
961
  0
LINE
  8
0
 10
404
 20
961
 11
401
 21
961
  0
LINE
  8
0
 10
401
 20
961
 11
401
 21
951
  0
LINE
  8
0
 10
401
 20
951
 11
404
 21
951
  0
LINE
  8
0
 10
404
 20
951
 11
404
 21
941
  0
LINE
  8
0
 10
404
 20
941
 11
401
 21
941
  0
LINE
  8
0
 10
401
 20
941
 11
401
 21
931
  0
LINE
  8
0
 10
401
 20
931
 11
404
 21
931
  0
LINE
  8
0
 10
404
 20
931
 11
404
 21
921
  0
LINE
  8
0
 10
404
 20
921
 11
401
 21
921
  0
LINE
  8
0
 10
401
 20
921
 11
401
 21
911
  0
LINE
  8
0
 10
401
 20
911
 11
404
 21
911
  0
LINE
  8
0
 10
404
 20
911
 11
404
 21
901
  0
LINE
  8
0
 10
404
 20
901
 11
401
 21
901
  0
LINE
  8
0
 10
401
 20
901
 11
401
 21
891
  0
LINE
  8
0
 10
401
 20
891
 11
404
 21
891
  0
LINE
  8
0
 10
404
 20
891
 11
404
 21
881
  0
LINE
  8
0
 10
404
 20
881
 11
401
 21
881
  0
LINE
  8
0
 10
401
 20
881
 11
401
 21
871
  0
LINE
  8
0
 10
401
 20
871
 11
404
 21
871
  0
LINE
  8
0
 10
404
 20
871
 11
404
 21
861
  0
LINE
  8
0
 10
404
 20
861
 11
401
 21
861
  0
LINE
  8
0
 10
401
 20
861
 11
401
 21
851
  0
LINE
  8
0
 10
401
 20
851
 11
404
 21
851
  0
LINE
  8
0
 10
404
 20
851
 11
404
 21
841
  0
LINE
  8
0
 10
404
 20
841
 11
401
 21
841
  0
LINE
  8
0
 10
401
 20
841
 11
401
 21
831
  0
LINE
  8
0
 10
401
 20
831
 11
404
 21
831
  0
LINE
  8
0
 10
404
 20
831
 11
404
 21
821
  0
LINE
  8
0
 10
404
 20
821
 11
401
 21
821
  0
LINE
  8
0
 10
401
 20
821
 11
401
 21
811
  0
LINE
  8
0
 10
401
 20
811
 11
404
 21
811
  0
LINE
  8
0
 10
404
 20
811
 11
404
 21
801
  0
LINE
  8
0
 10
404
 20
801
 11
401
 21
801
  0
LINE
  8
0
 10
401
 20
801
 11
401
 21
791
  0
LINE
  8
0
 10
401
 20
791
 11
404
 21
791
  0
LINE
  8
0
 10
404
 20
791
 11
404
 21
781
  0
LINE
  8
0
 10
404
 20
781
 11
401
 21
781
  0
LINE
  8
0
 10
401
 20
781
 11
401
 21
771
  0
LINE
  8
0
 10
401
 20
771
 11
404
 21
771
  0
LINE
  8
0
 10
404
 20
771
 11
404
 21
761
  0
LINE
  8
0
 10
404
 20
761
 11
401
 21
761
  0
LINE
  8
0
 10
401
 20
761
 11
401
 21
751
  0
LINE
  8
0
 10
401
 20
751
 11
404
 21
751
  0
LINE
  8
0
 10
404
 20
751
 11
404
 21
741
  0
LINE
  8
0
 10
404
 20
741
 11
401
 21
741
  0
LINE
  8
0
 10
401
 20
741
 11
401
 21
731
  0
LINE
  8
0
 10
401
 20
731
 11
404
 21
731
  0
LINE
  8
0
 10
404
 20
731
 11
404
 21
721
  0
LINE
  8
0
 10
404
 20
721
 11
401
 21
721
  0
LINE
  8
0
 10
401
 20
721
 11
401
 21
711
  0
LINE
  8
0
 10
401
 20
711
 11
404
 21
711
  0
LINE
  8
0
 10
404
 20
711
 11
404
 21
701
  0
LINE
  8
0
 10
404
 20
701
 11
401
 21
701
  0
LINE
  8
0
 10
401
 20
701
 11
401
 21
691
  0
LINE
  8
0
 10
401
 20
691
 11
404
 21
691
  0
LINE
  8
0
 10
404
 20
691
 11
404
 21
681
  0
LINE
  8
0
 10
404
 20
681
 11
401
 21
681
  0
LINE
  8
0
 10
401
 20
681
 11
401
 21
671
  0
LINE
  8
0
 10
401
 20
671
 11
404
 21
671
  0
LINE
  8
0
 10
404
 20
671
 11
404
 21
661
  0
LINE
  8
0
 10
404
 20
661
 11
401
 21
661
  0
LINE
  8
0
 10
401
 20
661
 11
401
 21
651
  0
LINE
  8
0
 10
401
 20
651
 11
404
 21
651
  0
LINE
  8
0
 10
404
 20
651
 11
404
 21
641
  0
LINE
  8
0
 10
404
 20
641
 11
401
 21
641
  0
LINE
  8
0
 10
401
 20
641
 11
401
 21
631
  0
LINE
  8
0
 10
401
 20
631
 11
404
 21
631
  0
LINE
  8
0
 10
404
 20
631
 11
404
 21
621
  0
LINE
  8
0
 10
404
 20
621
 11
401
 21
621
  0
LINE
  8
0
 10
401
 20
621
 11
401
 21
611
  0
LINE
  8
0
 10
401
 20
611
 11
404
 21
611
  0
LINE
  8
0
 10
404
 20
611
 11
404
 21
604
  0
LINE
  8
0
 10
404
 20
604
 11
411
 21
604
  0
LINE
  8
0
 10
411
 20
604
 11
411
 21
601
  0
LINE
  8
0
 10
411
 20
601
 11
421
 21
601
  0
LINE
  8
0
 10
421
 20
601
 11
421
 21
604
  0
LINE
  8
0
 10
421
 20
604
 11
431
 21
604
  0
LINE
  8
0
 10
431
 20
604
 11
431
 21
611
  0
LINE
  8
0
 10
431
 20
611
 11
428
 21
611
  0
LINE
  8
0
 10
428
 20
611
 11
428
 21
621
  0
LINE
  8
0
 10
428
 20
621
 11
431
 21
621
  0
LINE
  8
0
 10
431
 20
621
 11
431
 21
631
  0
LINE
  8
0
 10
431
 20
631
 11
428
 21
631
  0
LINE
  8
0
 10
428
 20
631
 11
428
 21
641
  0
LINE
  8
0
 10
428
 20
641
 11
431
 21
641
  0
LINE
  8
0
 10
431
 20
641
 11
431
 21
651
  0
LINE
  8
0
 10
431
 20
651
 11
428
 21
651
  0
LINE
  8
0
 10
428
 20
651
 11
428
 21
661
  0
LINE
  8
0
 10
428
 20
661
 11
431
 21
661
  0
LINE
  8
0
 10
431
 20
661
 11
431
 21
671
  0
LINE
  8
0
 10
431
 20
671
 11
428
 21
671
  0
LINE
  8
0
 10
428
 20
671
 11
428
 21
681
  0
LINE
  8
0
 10
428
 20
681
 11
431
 21
681
  0
LINE
  8
0
 10
431
 20
681
 11
431
 21
691
  0
LINE
  8
0
 10
431
 20
691
 11
428
 21
691
  0
LINE
  8
0
 10
428
 20
691
 11
428
 21
701
  0
LINE
  8
0
 10
428
 20
701
 11
431
 21
701
  0
LINE
  8
0
 10
431
 20
701
 11
431
 21
711
  0
LINE
  8
0
 10
431
 20
711
 11
428
 21
711
  0
LINE
  8
0
 10
428
 20
711
 11
428
 21
721
  0
LINE
  8
0
 10
428
 20
721
 11
431
 21
721
  0
LINE
  8
0
 10
431
 20
721
 11
431
 21
731
  0
LINE
  8
0
 10
431
 20
731
 11
428
 21
731
  0
LINE
  8
0
 10
428
 20
731
 11
428
 21
741
  0
LINE
  8
0
 10
428
 20
741
 11
431
 21
741
  0
LINE
  8
0
 10
431
 20
741
 11
431
 21
751
  0
LINE
  8
0
 10
431
 20
751
 11
428
 21
751
  0
LINE
  8
0
 10
428
 20
751
 11
428
 21
761
  0
LINE
  8
0
 10
428
 20
761
 11
431
 21
761
  0
LINE
  8
0
 10
431
 20
761
 11
431
 21
771
  0
LINE
  8
0
 10
431
 20
771
 11
428
 21
771
  0
LINE
  8
0
 10
428
 20
771
 11
428
 21
781
  0
LINE
  8
0
 10
428
 20
781
 11
431
 21
781
  0
LINE
  8
0
 10
431
 20
781
 11
431
 21
791
  0
LINE
  8
0
 10
431
 20
791
 11
428
 21
791
  0
LINE
  8
0
 10
428
 20
791
 11
428
 21
801
  0
LINE
  8
0
 10
428
 20
801
 11
431
 21
801
  0
LINE
  8
0
 10
431
 20
801
 11
431
 21
811
  0
LINE
  8
0
 10
431
 20
811
 11
428
 21
811
  0
LINE
  8
0
 10
428
 20
811
 11
428
 21
821
  0
LINE
  8
0
 10
428
 20
821
 11
431
 21
821
  0
LINE
  8
0
 10
431
 20
821
 11
431
 21
831
  0
LINE
  8
0
 10
431
 20
831
 11
428
 21
831
  0
LINE
  8
0
 10
428
 20
831
 11
428
 21
841
  0
LINE
  8
0
 10
428
 20
841
 11
431
 21
841
  0
LINE
  8
0
 10
431
 20
841
 11
431
 21
851
  0
LINE
  8
0
 10
431
 20
851
 11
428
 21
851
  0
LINE
  8
0
 10
428
 20
851
 11
428
 21
861
  0
LINE
  8
0
 10
428
 20
861
 11
431
 21
861
  0
LINE
  8
0
 10
431
 20
861
 11
431
 21
871
  0
LINE
  8
0
 10
431
 20
871
 11
428
 21
871
  0
LINE
  8
0
 10
428
 20
871
 11
428
 21
881
  0
LINE
  8
0
 10
428
 20
881
 11
431
 21
881
  0
LINE
  8
0
 10
431
 20
881
 11
431
 21
891
  0
LINE
  8
0
 10
431
 20
891
 11
428
 21
891
  0
LINE
  8
0
 10
428
 20
891
 11
428
 21
901
  0
LINE
  8
0
 10
428
 20
901
 11
431
 21
901
  0
LINE
  8
0
 10
431
 20
901
 11
431
 21
911
  0
LINE
  8
0
 10
431
 20
911
 11
428
 21
911
  0
LINE
  8
0
 10
428
 20
911
 11
428
 21
921
  0
LINE
  8
0
 10
428
 20
921
 11
431
 21
921
  0
LINE
  8
0
 10
431
 20
921
 11
431
 21
931
  0
LINE
  8
0
 10
431
 20
931
 11
428
 21
931
  0
LINE
  8
0
 10
428
 20
931
 11
428
 21
941
  0
LINE
  8
0
 10
428
 20
941
 11
431
 21
941
  0
LINE
  8
0
 10
431
 20
941
 11
431
 21
951
  0
LINE
  8
0
 10
431
 20
951
 11
428
 21
951
  0
LINE
  8
0
 10
428
 20
951
 11
428
 21
961
  0
LINE
  8
0
 10
428
 20
961
 11
431
 21
961
  0
LINE
  8
0
 10
431
 20
961
 11
431
 21
971
  0
LINE
  8
0
 10
431
 20
971
 11
428
 21
971
  0
LINE
  8
0
 10
428
 20
971
 11
428
 21
981
  0
LINE
  8
0
 10
428
 20
981
 11
431
 21
981
  0
LINE
  8
0
 10
431
 20
981
 11
431
 21
991
  0
LINE
  8
0
 10
431
 20
991
 11
428
 21
991
  0
LINE
  8
0
 10
428
 20
991
 11
428
 21
1001
  0
LINE
  8
0
 10
428
 20
1001
 11
431
 21
1001
  0
LINE
  8
0
 10
431
 20
1001
 11
431
 21
1011
  0
LINE
  8
0
 10
431
 20
1011
 11
428
 21
1011
  0
LINE
  8
0
 10
428
 20
1011
 11
428
 21
1021
  0
LINE
  8
0
 10
428
 20
1021
 11
431
 21
1021
  0
LINE
  8
0
 10
431
 20
1021
 11
431
 21
1031
  0
LINE
  8
0
 10
431
 20
1031
 11
428
 21
1031
  0
LINE
  8
0
 10
428
 20
1031
 11
428
 21
1041
  0
LINE
  8
0
 10
428
 20
1041
 11
431
 21
1041
  0
LINE
  8
0
 10
431
 20
1041
 11
431
 21
1051
  0
LINE
  8
0
 10
431
 20
1051
 11
428
 21
1051
  0
LINE
  8
0
 10
428
 20
1051
 11
428
 21
1061
  0
LINE
  8
0
 10
428
 20
1061
 11
431
 21
1061
  0
LINE
  8
0
 10
431
 20
1061
 11
431
 21
1071
  0
LINE
  8
0
 10
431
 20
1071
 11
428
 21
1071
  0
LINE
  8
0
 10
428
 20
1071
 11
428
 21
1081
  0
LINE
  8
0
 10
428
 20
1081
 11
431
 21
1081
  0
LINE
  8
0
 10
431
 20
1081
 11
431
 21
1091
  0
LINE
  8
0
 10
431
 20
1091
 11
428
 21
1091
  0
LINE
  8
0
 10
428
 20
1091
 11
428
 21
1101
  0
LINE
  8
0
 10
428
 20
1101
 11
431
 21
1101
  0
LINE
  8
0
 10
431
 20
1101
 11
431
 21
1111
  0
LINE
  8
0
 10
431
 20
1111
 11
428
 21
1111
  0
LINE
  8
0
 10
428
 20
1111
 11
428
 21
1121
  0
LINE
  8
0
 10
428
 20
1121
 11
431
 21
1121
  0
LINE
  8
0
 10
431
 20
1121
 11
431
 21
1131
  0
LINE
  8
0
 10
431
 20
1131
 11
428
 21
1131
  0
LINE
  8
0
 10
428
 20
1131
 11
428
 21
1141
  0
LINE
  8
0
 10
428
 20
1141
 11
431
 21
1141
  0
LINE
  8
0
 10
431
 20
1141
 11
431
 21
1151
  0
LINE
  8
0
 10
431
 20
1151
 11
428
 21
1151
  0
LINE
  8
0
 10
428
 20
1151
 11
428
 21
1161
  0
LINE
  8
0
 10
428
 20
1161
 11
431
 21
1161
  0
LINE
  8
0
 10
431
 20
1161
 11
431
 21
1171
  0
LINE
  8
0
 10
431
 20
1171
 11
428
 21
1171
  0
LINE
  8
0
 10
428
 20
1171
 11
428
 21
1181
  0
LINE
  8
0
 10
428
 20
1181
 11
431
 21
1181
  0
LINE
  8
0
 10
431
 20
1181
 11
431
 21
1191
  0
LINE
  8
0
 10
431
 20
1191
 11
428
 21
1191
  0
LINE
  8
0
 10
428
 20
1191
 11
428
 21
1201
  0
LINE
  8
0
 10
428
 20
1201
 11
421
 21
1201
  0
LINE
  8
0
 10
421
 20
1201
 11
421
 21
1198
  0
LINE
  8
0
 10
421
 20
1198
 11
411
 21
1198
  0
LINE
  8
0
 10
411
 20
1198
 11
411
 21
1201
  0
LINE
  8
0
 10
411
 20
1201
 11
401
 21
1201
  0
LINE
  8
0
 10
401
 20
1201
 11
401
 21
1191
  0
LINE
  8
0
 10
401
 20
1191
 11
404
 21
1191
  0
LINE
  8
0
 10
404
 20
1191
 11
404
 21
1181
  0
LINE
  8
0
 10
404
 20
1181
 11
401
 21
1181
  0
LINE
  8
0
 10
401
 20
1181
 11
401
 21
1171
  0
LINE
  8
0
 10
401
 20
1171
 11
404
 21
1171
  0
LINE
  8
0
 10
404
 20
1171
 11
404
 21
1161
  0
LINE
  8
0
 10
404
 20
1161
 11
401
 21
1161
  0
LINE
  8
0
 10
401
 20
1161
 11
401
 21
1151
  0
LINE
  8
0
 10
401
 20
1151
 11
404
 21
1151
  0
LINE
  8
0
 10
404
 20
1151
 11
404
 21
1141
  0
LINE
  8
0
 10
404
 20
1141
 11
401
 21
1141
  0
LINE
  8
0
 10
401
 20
1141
 11
401
 21
1131
  0
LINE
  8
0
 10
401
 20
1131
 11
404
 21
1131
  0
LINE
  8
0
 10
404
 20
1131
 11
404
 21
1121
  0
LINE
  8
0
 10
404
 20
1121
 11
401
 21
1121
  0
LINE
  8
0
 10
401
 20
1121
 11
401
 21
1111
  0
LINE
  8
0
 10
401
 20
1111
 11
404
 21
1111
  0
LINE
  8
0
 10
404
 20
1111
 11
404
 21
1101
  0
LINE
  8
0
 10
404
 20
1101
 11
401
 21
1101
  0
LINE
  8
0
 10
401
 20
1101
 11
401
 21
1091
  0
LINE
  8
0
 10
401
 20
1091
 11
404
 21
1091
  0
LINE
  8
0
 10
404
 20
1091
 11
404
 21
1081
  0
LINE
  8
0
 10
404
 20
1081
 11
401
 21
1081
  0
LINE
  8
0
 10
401
 20
1081
 11
401
 21
1071
  0
LINE
  8
0
 10
432
 20
1151
 11
435
 21
1151
  0
LINE
  8
0
 10
435
 20
1151
 11
435
 21
1141
  0
LINE
  8
0
 10
435
 20
1141
 11
432
 21
1141
  0
LINE
  8
0
 10
432
 20
1141
 11
432
 21
1131
  0
LINE
  8
0
 10
432
 20
1131
 11
435
 21
1131
  0
LINE
  8
0
 10
435
 20
1131
 11
435
 21
1121
  0
LINE
  8
0
 10
435
 20
1121
 11
432
 21
1121
  0
LINE
  8
0
 10
432
 20
1121
 11
432
 21
1111
  0
LINE
  8
0
 10
432
 20
1111
 11
435
 21
1111
  0
LINE
  8
0
 10
435
 20
1111
 11
435
 21
1101
  0
LINE
  8
0
 10
435
 20
1101
 11
432
 21
1101
  0
LINE
  8
0
 10
432
 20
1101
 11
432
 21
1091
  0
LINE
  8
0
 10
432
 20
1091
 11
435
 21
1091
  0
LINE
  8
0
 10
435
 20
1091
 11
435
 21
1081
  0
LINE
  8
0
 10
435
 20
1081
 11
432
 21
1081
  0
LINE
  8
0
 10
432
 20
1081
 11
432
 21
1071
  0
LINE
  8
0
 10
432
 20
1071
 11
435
 21
1071
  0
LINE
  8
0
 10
435
 20
1071
 11
435
 21
1061
  0
LINE
  8
0
 10
435
 20
1061
 11
432
 21
1061
  0
LINE
  8
0
 10
432
 20
1061
 11
432
 21
1051
  0
LINE
  8
0
 10
432
 20
1051
 11
435
 21
1051
  0
LINE
  8
0
 10
435
 20
1051
 11
435
 21
1041
  0
LINE
  8
0
 10
435
 20
1041
 11
432
 21
1041
  0
LINE
  8
0
 10
432
 20
1041
 11
432
 21
1031
  0
LINE
  8
0
 10
432
 20
1031
 11
435
 21
1031
  0
LINE
  8
0
 10
435
 20
1031
 11
435
 21
1021
  0
LINE
  8
0
 10
435
 20
1021
 11
432
 21
1021
  0
LINE
  8
0
 10
432
 20
1021
 11
432
 21
1011
  0
LINE
  8
0
 10
432
 20
1011
 11
435
 21
1011
  0
LINE
  8
0
 10
435
 20
1011
 11
435
 21
1001
  0
LINE
  8
0
 10
435
 20
1001
 11
432
 21
1001
  0
LINE
  8
0
 10
432
 20
1001
 11
432
 21
991
  0
LINE
  8
0
 10
432
 20
991
 11
435
 21
991
  0
LINE
  8
0
 10
435
 20
991
 11
435
 21
981
  0
LINE
  8
0
 10
435
 20
981
 11
432
 21
981
  0
LINE
  8
0
 10
432
 20
981
 11
432
 21
971
  0
LINE
  8
0
 10
432
 20
971
 11
435
 21
971
  0
LINE
  8
0
 10
435
 20
971
 11
435
 21
961
  0
LINE
  8
0
 10
435
 20
961
 11
432
 21
961
  0
LINE
  8
0
 10
432
 20
961
 11
432
 21
951
  0
LINE
  8
0
 10
432
 20
951
 11
435
 21
951
  0
LINE
  8
0
 10
435
 20
951
 11
435
 21
941
  0
LINE
  8
0
 10
435
 20
941
 11
432
 21
941
  0
LINE
  8
0
 10
432
 20
941
 11
432
 21
931
  0
LINE
  8
0
 10
432
 20
931
 11
435
 21
931
  0
LINE
  8
0
 10
435
 20
931
 11
435
 21
921
  0
LINE
  8
0
 10
435
 20
921
 11
432
 21
921
  0
LINE
  8
0
 10
432
 20
921
 11
432
 21
911
  0
LINE
  8
0
 10
432
 20
911
 11
435
 21
911
  0
LINE
  8
0
 10
435
 20
911
 11
435
 21
901
  0
LINE
  8
0
 10
435
 20
901
 11
432
 21
901
  0
LINE
  8
0
 10
432
 20
901
 11
432
 21
891
  0
LINE
  8
0
 10
432
 20
891
 11
435
 21
891
  0
LINE
  8
0
 10
435
 20
891
 11
435
 21
881
  0
LINE
  8
0
 10
435
 20
881
 11
432
 21
881
  0
LINE
  8
0
 10
432
 20
881
 11
432
 21
871
  0
LINE
  8
0
 10
432
 20
871
 11
435
 21
871
  0
LINE
  8
0
 10
435
 20
871
 11
435
 21
861
  0
LINE
  8
0
 10
435
 20
861
 11
432
 21
861
  0
LINE
  8
0
 10
432
 20
861
 11
432
 21
851
  0
LINE
  8
0
 10
432
 20
851
 11
435
 21
851
  0
LINE
  8
0
 10
435
 20
851
 11
435
 21
841
  0
LINE
  8
0
 10
435
 20
841
 11
432
 21
841
  0
LINE
  8
0
 10
432
 20
841
 11
432
 21
831
  0
LINE
  8
0
 10
432
 20
831
 11
435
 21
831
  0
LINE
  8
0
 10
435
 20
831
 11
435
 21
821
  0
LINE
  8
0
 10
435
 20
821
 11
432
 21
821
  0
LINE
  8
0
 10
432
 20
821
 11
432
 21
811
  0
LINE
  8
0
 10
432
 20
811
 11
435
 21
811
  0
LINE
  8
0
 10
435
 20
811
 11
435
 21
801
  0
LINE
  8
0
 10
435
 20
801
 11
432
 21
801
  0
LINE
  8
0
 10
432
 20
801
 11
432
 21
791
  0
LINE
  8
0
 10
432
 20
791
 11
435
 21
791
  0
LINE
  8
0
 10
435
 20
791
 11
435
 21
781
  0
LINE
  8
0
 10
435
 20
781
 11
432
 21
781
  0
LINE
  8
0
 10
432
 20
781
 11
432
 21
771
  0
LINE
  8
0
 10
432
 20
771
 11
435
 21
771
  0
LINE
  8
0
 10
435
 20
771
 11
435
 21
761
  0
LINE
  8
0
 10
435
 20
761
 11
432
 21
761
  0
LINE
  8
0
 10
432
 20
761
 11
432
 21
751
  0
LINE
  8
0
 10
432
 20
751
 11
435
 21
751
  0
LINE
  8
0
 10
435
 20
751
 11
435
 21
741
  0
LINE
  8
0
 10
435
 20
741
 11
432
 21
741
  0
LINE
  8
0
 10
432
 20
741
 11
432
 21
731
  0
LINE
  8
0
 10
432
 20
731
 11
435
 21
731
  0
LINE
  8
0
 10
435
 20
731
 11
435
 21
721
  0
LINE
  8
0
 10
435
 20
721
 11
432
 21
721
  0
LINE
  8
0
 10
432
 20
721
 11
432
 21
711
  0
LINE
  8
0
 10
432
 20
711
 11
435
 21
711
  0
LINE
  8
0
 10
435
 20
711
 11
435
 21
701
  0
LINE
  8
0
 10
435
 20
701
 11
432
 21
701
  0
LINE
  8
0
 10
432
 20
701
 11
432
 21
691
  0
LINE
  8
0
 10
432
 20
691
 11
435
 21
691
  0
LINE
  8
0
 10
435
 20
691
 11
435
 21
681
  0
LINE
  8
0
 10
435
 20
681
 11
432
 21
681
  0
LINE
  8
0
 10
432
 20
681
 11
432
 21
671
  0
LINE
  8
0
 10
432
 20
671
 11
435
 21
671
  0
LINE
  8
0
 10
435
 20
671
 11
435
 21
661
  0
LINE
  8
0
 10
435
 20
661
 11
432
 21
661
  0
LINE
  8
0
 10
432
 20
661
 11
432
 21
651
  0
LINE
  8
0
 10
432
 20
651
 11
435
 21
651
  0
LINE
  8
0
 10
435
 20
651
 11
435
 21
641
  0
LINE
  8
0
 10
435
 20
641
 11
432
 21
641
  0
LINE
  8
0
 10
432
 20
641
 11
432
 21
631
  0
LINE
  8
0
 10
432
 20
631
 11
435
 21
631
  0
LINE
  8
0
 10
435
 20
631
 11
435
 21
621
  0
LINE
  8
0
 10
435
 20
621
 11
432
 21
621
  0
LINE
  8
0
 10
432
 20
621
 11
432
 21
611
  0
LINE
  8
0
 10
432
 20
611
 11
435
 21
611
  0
LINE
  8
0
 10
435
 20
611
 11
435
 21
604
  0
LINE
  8
0
 10
435
 20
604
 11
442
 21
604
  0
LINE
  8
0
 10
442
 20
604
 11
442
 21
601
  0
LINE
  8
0
 10
442
 20
601
 11
452
 21
601
  0
LINE
  8
0
 10
452
 20
601
 11
452
 21
604
  0
LINE
  8
0
 10
452
 20
604
 11
462
 21
604
  0
LINE
  8
0
 10
462
 20
604
 11
462
 21
611
  0
LINE
  8
0
 10
462
 20
611
 11
459
 21
611
  0
LINE
  8
0
 10
459
 20
611
 11
459
 21
621
  0
LINE
  8
0
 10
459
 20
621
 11
462
 21
621
  0
LINE
  8
0
 10
462
 20
621
 11
462
 21
631
  0
LINE
  8
0
 10
462
 20
631
 11
459
 21
631
  0
LINE
  8
0
 10
459
 20
631
 11
459
 21
641
  0
LINE
  8
0
 10
459
 20
641
 11
462
 21
641
  0
LINE
  8
0
 10
462
 20
641
 11
462
 21
651
  0
LINE
  8
0
 10
462
 20
651
 11
459
 21
651
  0
LINE
  8
0
 10
459
 20
651
 11
459
 21
661
  0
LINE
  8
0
 10
459
 20
661
 11
462
 21
661
  0
LINE
  8
0
 10
462
 20
661
 11
462
 21
671
  0
LINE
  8
0
 10
462
 20
671
 11
459
 21
671
  0
LINE
  8
0
 10
459
 20
671
 11
459
 21
681
  0
LINE
  8
0
 10
459
 20
681
 11
462
 21
681
  0
LINE
  8
0
 10
462
 20
681
 11
462
 21
691
  0
LINE
  8
0
 10
462
 20
691
 11
459
 21
691
  0
LINE
  8
0
 10
459
 20
691
 11
459
 21
701
  0
LINE
  8
0
 10
459
 20
701
 11
462
 21
701
  0
LINE
  8
0
 10
462
 20
701
 11
462
 21
711
  0
LINE
  8
0
 10
462
 20
711
 11
459
 21
711
  0
LINE
  8
0
 10
459
 20
711
 11
459
 21
721
  0
LINE
  8
0
 10
459
 20
721
 11
462
 21
721
  0
LINE
  8
0
 10
462
 20
721
 11
462
 21
731
  0
LINE
  8
0
 10
462
 20
731
 11
459
 21
731
  0
LINE
  8
0
 10
459
 20
731
 11
459
 21
741
  0
LINE
  8
0
 10
459
 20
741
 11
462
 21
741
  0
LINE
  8
0
 10
462
 20
741
 11
462
 21
751
  0
LINE
  8
0
 10
462
 20
751
 11
459
 21
751
  0
LINE
  8
0
 10
459
 20
751
 11
459
 21
761
  0
LINE
  8
0
 10
459
 20
761
 11
462
 21
761
  0
LINE
  8
0
 10
462
 20
761
 11
462
 21
771
  0
LINE
  8
0
 10
462
 20
771
 11
459
 21
771
  0
LINE
  8
0
 10
459
 20
771
 11
459
 21
781
  0
LINE
  8
0
 10
459
 20
781
 11
462
 21
781
  0
LINE
  8
0
 10
462
 20
781
 11
462
 21
791
  0
LINE
  8
0
 10
462
 20
791
 11
459
 21
791
  0
LINE
  8
0
 10
459
 20
791
 11
459
 21
801
  0
LINE
  8
0
 10
459
 20
801
 11
462
 21
801
  0
LINE
  8
0
 10
462
 20
801
 11
462
 21
811
  0
LINE
  8
0
 10
462
 20
811
 11
459
 21
811
  0
LINE
  8
0
 10
459
 20
811
 11
459
 21
821
  0
LINE
  8
0
 10
459
 20
821
 11
462
 21
821
  0
LINE
  8
0
 10
462
 20
821
 11
462
 21
831
  0
LINE
  8
0
 10
462
 20
831
 11
459
 21
831
  0
LINE
  8
0
 10
459
 20
831
 11
459
 21
841
  0
LINE
  8
0
 10
459
 20
841
 11
462
 21
841
  0
LINE
  8
0
 10
462
 20
841
 11
462
 21
851
  0
LINE
  8
0
 10
462
 20
851
 11
459
 21
851
  0
LINE
  8
0
 10
459
 20
851
 11
459
 21
861
  0
LINE
  8
0
 10
459
 20
861
 11
462
 21
861
  0
LINE
  8
0
 10
462
 20
861
 11
462
 21
871
  0
LINE
  8
0
 10
462
 20
871
 11
459
 21
871
  0
LINE
  8
0
 10
459
 20
871
 11
459
 21
881
  0
LINE
  8
0
 10
459
 20
881
 11
462
 21
881
  0
LINE
  8
0
 10
462
 20
881
 11
462
 21
891
  0
LINE
  8
0
 10
462
 20
891
 11
459
 21
891
  0
LINE
  8
0
 10
459
 20
891
 11
459
 21
901
  0
LINE
  8
0
 10
459
 20
901
 11
462
 21
901
  0
LINE
  8
0
 10
462
 20
901
 11
462
 21
911
  0
LINE
  8
0
 10
462
 20
911
 11
459
 21
911
  0
LINE
  8
0
 10
459
 20
911
 11
459
 21
921
  0
LINE
  8
0
 10
459
 20
921
 11
462
 21
921
  0
LINE
  8
0
 10
462
 20
921
 11
462
 21
931
  0
LINE
  8
0
 10
462
 20
931
 11
459
 21
931
  0
LINE
  8
0
 10
459
 20
931
 11
459
 21
941
  0
LINE
  8
0
 10
459
 20
941
 11
462
 21
941
  0
LINE
  8
0
 10
462
 20
941
 11
462
 21
951
  0
LINE
  8
0
 10
462
 20
951
 11
459
 21
951
  0
LINE
  8
0
 10
459
 20
951
 11
459
 21
961
  0
LINE
  8
0
 10
459
 20
961
 11
462
 21
961
  0
LINE
  8
0
 10
462
 20
961
 11
462
 21
971
  0
LINE
  8
0
 10
462
 20
971
 11
459
 21
971
  0
LINE
  8
0
 10
459
 20
971
 11
459
 21
981
  0
LINE
  8
0
 10
459
 20
981
 11
462
 21
981
  0
LINE
  8
0
 10
462
 20
981
 11
462
 21
991
  0
LINE
  8
0
 10
462
 20
991
 11
459
 21
991
  0
LINE
  8
0
 10
459
 20
991
 11
459
 21
1001
  0
LINE
  8
0
 10
459
 20
1001
 11
462
 21
1001
  0
LINE
  8
0
 10
462
 20
1001
 11
462
 21
1011
  0
LINE
  8
0
 10
462
 20
1011
 11
459
 21
1011
  0
LINE
  8
0
 10
459
 20
1011
 11
459
 21
1021
  0
LINE
  8
0
 10
459
 20
1021
 11
462
 21
1021
  0
LINE
  8
0
 10
462
 20
1021
 11
462
 21
1031
  0
LINE
  8
0
 10
462
 20
1031
 11
459
 21
1031
  0
LINE
  8
0
 10
459
 20
1031
 11
459
 21
1041
  0
LINE
  8
0
 10
459
 20
1041
 11
462
 21
1041
  0
LINE
  8
0
 10
462
 20
1041
 11
462
 21
1051
  0
LINE
  8
0
 10
462
 20
1051
 11
459
 21
1051
  0
LINE
  8
0
 10
459
 20
1051
 11
459
 21
1061
  0
LINE
  8
0
 10
459
 20
1061
 11
462
 21
1061
  0
LINE
  8
0
 10
462
 20
1061
 11
462
 21
1071
  0
LINE
  8
0
 10
462
 20
1071
 11
459
 21
1071
  0
LINE
  8
0
 10
459
 20
1071
 11
459
 21
1081
  0
LINE
  8
0
 10
459
 20
1081
 11
462
 21
1081
  0
LINE
  8
0
 10
462
 20
1081
 11
462
 21
1091
  0
LINE
  8
0
 10
462
 20
1091
 11
459
 21
1091
  0
LINE
  8
0
 10
459
 20
1091
 11
459
 21
1101
  0
LINE
  8
0
 10
459
 20
1101
 11
462
 21
1101
  0
LINE
  8
0
 10
462
 20
1101
 11
462
 21
1111
  0
LINE
  8
0
 10
462
 20
1111
 11
459
 21
1111
  0
LINE
  8
0
 10
459
 20
1111
 11
459
 21
1121
  0
LINE
  8
0
 10
459
 20
1121
 11
462
 21
1121
  0
LINE
  8
0
 10
462
 20
1121
 11
462
 21
1131
  0
LINE
  8
0
 10
462
 20
1131
 11
459
 21
1131
  0
LINE
  8
0
 10
459
 20
1131
 11
459
 21
1141
  0
LINE
  8
0
 10
459
 20
1141
 11
462
 21
1141
  0
LINE
  8
0
 10
462
 20
1141
 11
462
 21
1151
  0
LINE
  8
0
 10
462
 20
1151
 11
459
 21
1151
  0
LINE
  8
0
 10
459
 20
1151
 11
459
 21
1161
  0
LINE
  8
0
 10
459
 20
1161
 11
462
 21
1161
  0
LINE
  8
0
 10
462
 20
1161
 11
462
 21
1171
  0
LINE
  8
0
 10
462
 20
1171
 11
459
 21
1171
  0
LINE
  8
0
 10
459
 20
1171
 11
459
 21
1181
  0
LINE
  8
0
 10
459
 20
1181
 11
462
 21
1181
  0
LINE
  8
0
 10
462
 20
1181
 11
462
 21
1191
  0
LINE
  8
0
 10
462
 20
1191
 11
459
 21
1191
  0
LINE
  8
0
 10
459
 20
1191
 11
459
 21
1201
  0
LINE
  8
0
 10
459
 20
1201
 11
452
 21
1201
  0
LINE
  8
0
 10
452
 20
1201
 11
452
 21
1198
  0
LINE
  8
0
 10
452
 20
1198
 11
442
 21
1198
  0
LINE
  8
0
 10
442
 20
1198
 11
442
 21
1201
  0
LINE
  8
0
 10
442
 20
1201
 11
432
 21
1201
  0
LINE
  8
0
 10
432
 20
1201
 11
432
 21
1191
  0
LINE
  8
0
 10
432
 20
1191
 11
435
 21
1191
  0
LINE
  8
0
 10
435
 20
1191
 11
435
 21
1181
  0
LINE
  8
0
 10
435
 20
1181
 11
432
 21
1181
  0
LINE
  8
0
 10
432
 20
1181
 11
432
 21
1171
  0
LINE
  8
0
 10
432
 20
1171
 11
435
 21
1171
  0
LINE
  8
0
 10
435
 20
1171
 11
435
 21
1161
  0
LINE
  8
0
 10
435
 20
1161
 11
432
 21
1161
  0
LINE
  8
0
 10
432
 20
1161
 11
432
 21
1151
  0
LINE
  8
0
 10
874
 20
604
 11
884
 21
604
  0
LINE
  8
0
 10
884
 20
604
 11
884
 21
601
  0
LINE
  8
0
 10
884
 20
601
 11
894
 21
601
  0
LINE
  8
0
 10
894
 20
601
 11
894
 21
611
  0
LINE
  8
0
 10
894
 20
611
 11
891
 21
611
  0
LINE
  8
0
 10
891
 20
611
 11
891
 21
621
  0
LINE
  8
0
 10
891
 20
621
 11
894
 21
621
  0
LINE
  8
0
 10
894
 20
621
 11
894
 21
631
  0
LINE
  8
0
 10
894
 20
631
 11
891
 21
631
  0
LINE
  8
0
 10
891
 20
631
 11
891
 21
641
  0
LINE
  8
0
 10
891
 20
641
 11
894
 21
641
  0
LINE
  8
0
 10
894
 20
641
 11
894
 21
651
  0
LINE
  8
0
 10
894
 20
651
 11
891
 21
651
  0
LINE
  8
0
 10
891
 20
651
 11
891
 21
661
  0
LINE
  8
0
 10
891
 20
661
 11
894
 21
661
  0
LINE
  8
0
 10
894
 20
661
 11
894
 21
671
  0
LINE
  8
0
 10
894
 20
671
 11
891
 21
671
  0
LINE
  8
0
 10
891
 20
671
 11
891
 21
681
  0
LINE
  8
0
 10
891
 20
681
 11
894
 21
681
  0
LINE
  8
0
 10
894
 20
681
 11
894
 21
691
  0
LINE
  8
0
 10
894
 20
691
 11
891
 21
691
  0
LINE
  8
0
 10
891
 20
691
 11
891
 21
701
  0
LINE
  8
0
 10
891
 20
701
 11
894
 21
701
  0
LINE
  8
0
 10
894
 20
701
 11
894
 21
711
  0
LINE
  8
0
 10
894
 20
711
 11
891
 21
711
  0
LINE
  8
0
 10
891
 20
711
 11
891
 21
721
  0
LINE
  8
0
 10
891
 20
721
 11
894
 21
721
  0
LINE
  8
0
 10
894
 20
721
 11
894
 21
731
  0
LINE
  8
0
 10
894
 20
731
 11
891
 21
731
  0
LINE
  8
0
 10
891
 20
731
 11
891
 21
741
  0
LINE
  8
0
 10
891
 20
741
 11
894
 21
741
  0
LINE
  8
0
 10
894
 20
741
 11
894
 21
751
  0
LINE
  8
0
 10
894
 20
751
 11
891
 21
751
  0
LINE
  8
0
 10
891
 20
751
 11
891
 21
761
  0
LINE
  8
0
 10
891
 20
761
 11
894
 21
761
  0
LINE
  8
0
 10
894
 20
761
 11
894
 21
771
  0
LINE
  8
0
 10
894
 20
771
 11
891
 21
771
  0
LINE
  8
0
 10
891
 20
771
 11
891
 21
781
  0
LINE
  8
0
 10
891
 20
781
 11
894
 21
781
  0
LINE
  8
0
 10
894
 20
781
 11
894
 21
791
  0
LINE
  8
0
 10
894
 20
791
 11
891
 21
791
  0
LINE
  8
0
 10
891
 20
791
 11
891
 21
801
  0
LINE
  8
0
 10
891
 20
801
 11
894
 21
801
  0
LINE
  8
0
 10
894
 20
801
 11
894
 21
811
  0
LINE
  8
0
 10
894
 20
811
 11
891
 21
811
  0
LINE
  8
0
 10
891
 20
811
 11
891
 21
821
  0
LINE
  8
0
 10
891
 20
821
 11
894
 21
821
  0
LINE
  8
0
 10
894
 20
821
 11
894
 21
831
  0
LINE
  8
0
 10
894
 20
831
 11
891
 21
831
  0
LINE
  8
0
 10
891
 20
831
 11
891
 21
841
  0
LINE
  8
0
 10
891
 20
841
 11
894
 21
841
  0
LINE
  8
0
 10
894
 20
841
 11
894
 21
851
  0
LINE
  8
0
 10
894
 20
851
 11
891
 21
851
  0
LINE
  8
0
 10
891
 20
851
 11
891
 21
861
  0
LINE
  8
0
 10
891
 20
861
 11
894
 21
861
  0
LINE
  8
0
 10
894
 20
861
 11
894
 21
871
  0
LINE
  8
0
 10
894
 20
871
 11
891
 21
871
  0
LINE
  8
0
 10
891
 20
871
 11
891
 21
881
  0
LINE
  8
0
 10
891
 20
881
 11
894
 21
881
  0
LINE
  8
0
 10
894
 20
881
 11
894
 21
891
  0
LINE
  8
0
 10
894
 20
891
 11
891
 21
891
  0
LINE
  8
0
 10
891
 20
891
 11
891
 21
901
  0
LINE
  8
0
 10
891
 20
901
 11
894
 21
901
  0
LINE
  8
0
 10
894
 20
901
 11
894
 21
911
  0
LINE
  8
0
 10
894
 20
911
 11
891
 21
911
  0
LINE
  8
0
 10
891
 20
911
 11
891
 21
921
  0
LINE
  8
0
 10
891
 20
921
 11
894
 21
921
  0
LINE
  8
0
 10
894
 20
921
 11
894
 21
931
  0
LINE
  8
0
 10
894
 20
931
 11
891
 21
931
  0
LINE
  8
0
 10
891
 20
931
 11
891
 21
941
  0
LINE
  8
0
 10
891
 20
941
 11
894
 21
941
  0
LINE
  8
0
 10
894
 20
941
 11
894
 21
951
  0
LINE
  8
0
 10
894
 20
951
 11
891
 21
951
  0
LINE
  8
0
 10
891
 20
951
 11
891
 21
961
  0
LINE
  8
0
 10
891
 20
961
 11
894
 21
961
  0
LINE
  8
0
 10
894
 20
961
 11
894
 21
971
  0
LINE
  8
0
 10
894
 20
971
 11
891
 21
971
  0
LINE
  8
0
 10
891
 20
971
 11
891
 21
981
  0
LINE
  8
0
 10
891
 20
981
 11
894
 21
981
  0
LINE
  8
0
 10
894
 20
981
 11
894
 21
991
  0
LINE
  8
0
 10
894
 20
991
 11
891
 21
991
  0
LINE
  8
0
 10
891
 20
991
 11
891
 21
1001
  0
LINE
  8
0
 10
891
 20
1001
 11
884
 21
1001
  0
LINE
  8
0
 10
884
 20
1001
 11
884
 21
998
  0
LINE
  8
0
 10
884
 20
998
 11
874
 21
998
  0
LINE
  8
0
 10
874
 20
998
 11
874
 21
1001
  0
LINE
  8
0
 10
874
 20
1001
 11
864
 21
1001
  0
LINE
  8
0
 10
864
 20
1001
 11
864
 21
991
  0
LINE
  8
0
 10
864
 20
991
 11
867
 21
991
  0
LINE
  8
0
 10
867
 20
991
 11
867
 21
981
  0
LINE
  8
0
 10
867
 20
981
 11
864
 21
981
  0
LINE
  8
0
 10
864
 20
981
 11
864
 21
971
  0
LINE
  8
0
 10
864
 20
971
 11
867
 21
971
  0
LINE
  8
0
 10
867
 20
971
 11
867
 21
961
  0
LINE
  8
0
 10
867
 20
961
 11
864
 21
961
  0
LINE
  8
0
 10
864
 20
961
 11
864
 21
951
  0
LINE
  8
0
 10
864
 20
951
 11
867
 21
951
  0
LINE
  8
0
 10
867
 20
951
 11
867
 21
941
  0
LINE
  8
0
 10
867
 20
941
 11
864
 21
941
  0
LINE
  8
0
 10
864
 20
941
 11
864
 21
931
  0
LINE
  8
0
 10
864
 20
931
 11
867
 21
931
  0
LINE
  8
0
 10
867
 20
931
 11
867
 21
921
  0
LINE
  8
0
 10
867
 20
921
 11
864
 21
921
  0
LINE
  8
0
 10
864
 20
921
 11
864
 21
911
  0
LINE
  8
0
 10
864
 20
911
 11
867
 21
911
  0
LINE
  8
0
 10
867
 20
911
 11
867
 21
901
  0
LINE
  8
0
 10
867
 20
901
 11
864
 21
901
  0
LINE
  8
0
 10
864
 20
901
 11
864
 21
891
  0
LINE
  8
0
 10
864
 20
891
 11
867
 21
891
  0
LINE
  8
0
 10
867
 20
891
 11
867
 21
881
  0
LINE
  8
0
 10
867
 20
881
 11
864
 21
881
  0
LINE
  8
0
 10
864
 20
881
 11
864
 21
871
  0
LINE
  8
0
 10
864
 20
871
 11
867
 21
871
  0
LINE
  8
0
 10
867
 20
871
 11
867
 21
861
  0
LINE
  8
0
 10
867
 20
861
 11
864
 21
861
  0
LINE
  8
0
 10
864
 20
861
 11
864
 21
851
  0
LINE
  8
0
 10
864
 20
851
 11
867
 21
851
  0
LINE
  8
0
 10
867
 20
851
 11
867
 21
841
  0
LINE
  8
0
 10
867
 20
841
 11
864
 21
841
  0
LINE
  8
0
 10
864
 20
841
 11
864
 21
831
  0
LINE
  8
0
 10
864
 20
831
 11
867
 21
831
  0
LINE
  8
0
 10
867
 20
831
 11
867
 21
821
  0
LINE
  8
0
 10
867
 20
821
 11
864
 21
821
  0
LINE
  8
0
 10
864
 20
821
 11
864
 21
811
  0
LINE
  8
0
 10
864
 20
811
 11
867
 21
811
  0
LINE
  8
0
 10
867
 20
811
 11
867
 21
801
  0
LINE
  8
0
 10
867
 20
801
 11
864
 21
801
  0
LINE
  8
0
 10
864
 20
801
 11
864
 21
791
  0
LINE
  8
0
 10
864
 20
791
 11
867
 21
791
  0
LINE
  8
0
 10
867
 20
791
 11
867
 21
781
  0
LINE
  8
0
 10
867
 20
781
 11
864
 21
781
  0
LINE
  8
0
 10
864
 20
781
 11
864
 21
771
  0
LINE
  8
0
 10
864
 20
771
 11
867
 21
771
  0
LINE
  8
0
 10
867
 20
771
 11
867
 21
761
  0
LINE
  8
0
 10
867
 20
761
 11
864
 21
761
  0
LINE
  8
0
 10
864
 20
761
 11
864
 21
751
  0
LINE
  8
0
 10
864
 20
751
 11
867
 21
751
  0
LINE
  8
0
 10
867
 20
751
 11
867
 21
741
  0
LINE
  8
0
 10
867
 20
741
 11
864
 21
741
  0
LINE
  8
0
 10
864
 20
741
 11
864
 21
731
  0
LINE
  8
0
 10
864
 20
731
 11
867
 21
731
  0
LINE
  8
0
 10
867
 20
731
 11
867
 21
721
  0
LINE
  8
0
 10
867
 20
721
 11
864
 21
721
  0
LINE
  8
0
 10
864
 20
721
 11
864
 21
711
  0
LINE
  8
0
 10
864
 20
711
 11
867
 21
711
  0
LINE
  8
0
 10
867
 20
711
 11
867
 21
701
  0
LINE
  8
0
 10
867
 20
701
 11
864
 21
701
  0
LINE
  8
0
 10
864
 20
701
 11
864
 21
691
  0
LINE
  8
0
 10
864
 20
691
 11
867
 21
691
  0
LINE
  8
0
 10
867
 20
691
 11
867
 21
681
  0
LINE
  8
0
 10
867
 20
681
 11
864
 21
681
  0
LINE
  8
0
 10
864
 20
681
 11
864
 21
671
  0
LINE
  8
0
 10
864
 20
671
 11
867
 21
671
  0
LINE
  8
0
 10
867
 20
671
 11
867
 21
661
  0
LINE
  8
0
 10
867
 20
661
 11
864
 21
661
  0
LINE
  8
0
 10
864
 20
661
 11
864
 21
651
  0
LINE
  8
0
 10
864
 20
651
 11
867
 21
651
  0
LINE
  8
0
 10
867
 20
651
 11
867
 21
641
  0
LINE
  8
0
 10
867
 20
641
 11
864
 21
641
  0
LINE
  8
0
 10
864
 20
641
 11
864
 21
631
  0
LINE
  8
0
 10
864
 20
631
 11
867
 21
631
  0
LINE
  8
0
 10
867
 20
631
 11
867
 21
621
  0
LINE
  8
0
 10
867
 20
621
 11
864
 21
621
  0
LINE
  8
0
 10
864
 20
621
 11
864
 21
611
  0
LINE
  8
0
 10
864
 20
611
 11
867
 21
611
  0
LINE
  8
0
 10
867
 20
611
 11
867
 21
601
  0
LINE
  8
0
 10
867
 20
601
 11
874
 21
601
  0
LINE
  8
0
 10
874
 20
601
 11
874
 21
604
  0
LINE
  8
0
 10
915
 20
604
 11
925
 21
604
  0
LINE
  8
0
 10
925
 20
604
 11
925
 21
611
  0
LINE
  8
0
 10
925
 20
611
 11
922
 21
611
  0
LINE
  8
0
 10
922
 20
611
 11
922
 21
621
  0
LINE
  8
0
 10
922
 20
621
 11
925
 21
621
  0
LINE
  8
0
 10
925
 20
621
 11
925
 21
631
  0
LINE
  8
0
 10
925
 20
631
 11
922
 21
631
  0
LINE
  8
0
 10
922
 20
631
 11
922
 21
641
  0
LINE
  8
0
 10
922
 20
641
 11
925
 21
641
  0
LINE
  8
0
 10
925
 20
641
 11
925
 21
651
  0
LINE
  8
0
 10
925
 20
651
 11
922
 21
651
  0
LINE
  8
0
 10
922
 20
651
 11
922
 21
661
  0
LINE
  8
0
 10
922
 20
661
 11
925
 21
661
  0
LINE
  8
0
 10
925
 20
661
 11
925
 21
671
  0
LINE
  8
0
 10
925
 20
671
 11
922
 21
671
  0
LINE
  8
0
 10
922
 20
671
 11
922
 21
681
  0
LINE
  8
0
 10
922
 20
681
 11
925
 21
681
  0
LINE
  8
0
 10
925
 20
681
 11
925
 21
691
  0
LINE
  8
0
 10
925
 20
691
 11
922
 21
691
  0
LINE
  8
0
 10
922
 20
691
 11
922
 21
701
  0
LINE
  8
0
 10
922
 20
701
 11
925
 21
701
  0
LINE
  8
0
 10
925
 20
701
 11
925
 21
711
  0
LINE
  8
0
 10
925
 20
711
 11
922
 21
711
  0
LINE
  8
0
 10
922
 20
711
 11
922
 21
721
  0
LINE
  8
0
 10
922
 20
721
 11
925
 21
721
  0
LINE
  8
0
 10
925
 20
721
 11
925
 21
731
  0
LINE
  8
0
 10
925
 20
731
 11
922
 21
731
  0
LINE
  8
0
 10
922
 20
731
 11
922
 21
741
  0
LINE
  8
0
 10
922
 20
741
 11
925
 21
741
  0
LINE
  8
0
 10
925
 20
741
 11
925
 21
751
  0
LINE
  8
0
 10
925
 20
751
 11
922
 21
751
  0
LINE
  8
0
 10
922
 20
751
 11
922
 21
761
  0
LINE
  8
0
 10
922
 20
761
 11
925
 21
761
  0
LINE
  8
0
 10
925
 20
761
 11
925
 21
771
  0
LINE
  8
0
 10
925
 20
771
 11
922
 21
771
  0
LINE
  8
0
 10
922
 20
771
 11
922
 21
781
  0
LINE
  8
0
 10
922
 20
781
 11
925
 21
781
  0
LINE
  8
0
 10
925
 20
781
 11
925
 21
791
  0
LINE
  8
0
 10
925
 20
791
 11
922
 21
791
  0
LINE
  8
0
 10
922
 20
791
 11
922
 21
801
  0
LINE
  8
0
 10
922
 20
801
 11
925
 21
801
  0
LINE
  8
0
 10
925
 20
801
 11
925
 21
811
  0
LINE
  8
0
 10
925
 20
811
 11
922
 21
811
  0
LINE
  8
0
 10
922
 20
811
 11
922
 21
821
  0
LINE
  8
0
 10
922
 20
821
 11
925
 21
821
  0
LINE
  8
0
 10
925
 20
821
 11
925
 21
831
  0
LINE
  8
0
 10
925
 20
831
 11
922
 21
831
  0
LINE
  8
0
 10
922
 20
831
 11
922
 21
841
  0
LINE
  8
0
 10
922
 20
841
 11
925
 21
841
  0
LINE
  8
0
 10
925
 20
841
 11
925
 21
851
  0
LINE
  8
0
 10
925
 20
851
 11
922
 21
851
  0
LINE
  8
0
 10
922
 20
851
 11
922
 21
861
  0
LINE
  8
0
 10
922
 20
861
 11
925
 21
861
  0
LINE
  8
0
 10
925
 20
861
 11
925
 21
871
  0
LINE
  8
0
 10
925
 20
871
 11
922
 21
871
  0
LINE
  8
0
 10
922
 20
871
 11
922
 21
881
  0
LINE
  8
0
 10
922
 20
881
 11
925
 21
881
  0
LINE
  8
0
 10
925
 20
881
 11
925
 21
891
  0
LINE
  8
0
 10
925
 20
891
 11
922
 21
891
  0
LINE
  8
0
 10
922
 20
891
 11
922
 21
901
  0
LINE
  8
0
 10
922
 20
901
 11
925
 21
901
  0
LINE
  8
0
 10
925
 20
901
 11
925
 21
911
  0
LINE
  8
0
 10
925
 20
911
 11
922
 21
911
  0
LINE
  8
0
 10
922
 20
911
 11
922
 21
921
  0
LINE
  8
0
 10
922
 20
921
 11
925
 21
921
  0
LINE
  8
0
 10
925
 20
921
 11
925
 21
931
  0
LINE
  8
0
 10
925
 20
931
 11
922
 21
931
  0
LINE
  8
0
 10
922
 20
931
 11
922
 21
941
  0
LINE
  8
0
 10
922
 20
941
 11
925
 21
941
  0
LINE
  8
0
 10
925
 20
941
 11
925
 21
951
  0
LINE
  8
0
 10
925
 20
951
 11
922
 21
951
  0
LINE
  8
0
 10
922
 20
951
 11
922
 21
961
  0
LINE
  8
0
 10
922
 20
961
 11
925
 21
961
  0
LINE
  8
0
 10
925
 20
961
 11
925
 21
971
  0
LINE
  8
0
 10
925
 20
971
 11
922
 21
971
  0
LINE
  8
0
 10
922
 20
971
 11
922
 21
981
  0
LINE
  8
0
 10
922
 20
981
 11
925
 21
981
  0
LINE
  8
0
 10
925
 20
981
 11
925
 21
991
  0
LINE
  8
0
 10
925
 20
991
 11
922
 21
991
  0
LINE
  8
0
 10
922
 20
991
 11
922
 21
998
  0
LINE
  8
0
 10
922
 20
998
 11
915
 21
998
  0
LINE
  8
0
 10
915
 20
998
 11
915
 21
1001
  0
LINE
  8
0
 10
915
 20
1001
 11
905
 21
1001
  0
LINE
  8
0
 10
905
 20
1001
 11
905
 21
998
  0
LINE
  8
0
 10
905
 20
998
 11
895
 21
998
  0
LINE
  8
0
 10
895
 20
998
 11
895
 21
991
  0
LINE
  8
0
 10
895
 20
991
 11
898
 21
991
  0
LINE
  8
0
 10
898
 20
991
 11
898
 21
981
  0
LINE
  8
0
 10
898
 20
981
 11
895
 21
981
  0
LINE
  8
0
 10
895
 20
981
 11
895
 21
971
  0
LINE
  8
0
 10
895
 20
971
 11
898
 21
971
  0
LINE
  8
0
 10
898
 20
971
 11
898
 21
961
  0
LINE
  8
0
 10
898
 20
961
 11
895
 21
961
  0
LINE
  8
0
 10
895
 20
961
 11
895
 21
951
  0
LINE
  8
0
 10
895
 20
951
 11
898
 21
951
  0
LINE
  8
0
 10
898
 20
951
 11
898
 21
941
  0
LINE
  8
0
 10
898
 20
941
 11
895
 21
941
  0
LINE
  8
0
 10
895
 20
941
 11
895
 21
931
  0
LINE
  8
0
 10
895
 20
931
 11
898
 21
931
  0
LINE
  8
0
 10
898
 20
931
 11
898
 21
921
  0
LINE
  8
0
 10
898
 20
921
 11
895
 21
921
  0
LINE
  8
0
 10
895
 20
921
 11
895
 21
911
  0
LINE
  8
0
 10
895
 20
911
 11
898
 21
911
  0
LINE
  8
0
 10
898
 20
911
 11
898
 21
901
  0
LINE
  8
0
 10
898
 20
901
 11
895
 21
901
  0
LINE
  8
0
 10
895
 20
901
 11
895
 21
891
  0
LINE
  8
0
 10
895
 20
891
 11
898
 21
891
  0
LINE
  8
0
 10
898
 20
891
 11
898
 21
881
  0
LINE
  8
0
 10
898
 20
881
 11
895
 21
881
  0
LINE
  8
0
 10
895
 20
881
 11
895
 21
871
  0
LINE
  8
0
 10
895
 20
871
 11
898
 21
871
  0
LINE
  8
0
 10
898
 20
871
 11
898
 21
861
  0
LINE
  8
0
 10
898
 20
861
 11
895
 21
861
  0
LINE
  8
0
 10
895
 20
861
 11
895
 21
851
  0
LINE
  8
0
 10
895
 20
851
 11
898
 21
851
  0
LINE
  8
0
 10
898
 20
851
 11
898
 21
841
  0
LINE
  8
0
 10
898
 20
841
 11
895
 21
841
  0
LINE
  8
0
 10
895
 20
841
 11
895
 21
831
  0
LINE
  8
0
 10
895
 20
831
 11
898
 21
831
  0
LINE
  8
0
 10
898
 20
831
 11
898
 21
821
  0
LINE
  8
0
 10
898
 20
821
 11
895
 21
821
  0
LINE
  8
0
 10
895
 20
821
 11
895
 21
811
  0
LINE
  8
0
 10
895
 20
811
 11
898
 21
811
  0
LINE
  8
0
 10
898
 20
811
 11
898
 21
801
  0
LINE
  8
0
 10
898
 20
801
 11
895
 21
801
  0
LINE
  8
0
 10
895
 20
801
 11
895
 21
791
  0
LINE
  8
0
 10
895
 20
791
 11
898
 21
791
  0
LINE
  8
0
 10
898
 20
791
 11
898
 21
781
  0
LINE
  8
0
 10
898
 20
781
 11
895
 21
781
  0
LINE
  8
0
 10
895
 20
781
 11
895
 21
771
  0
LINE
  8
0
 10
895
 20
771
 11
898
 21
771
  0
LINE
  8
0
 10
898
 20
771
 11
898
 21
761
  0
LINE
  8
0
 10
898
 20
761
 11
895
 21
761
  0
LINE
  8
0
 10
895
 20
761
 11
895
 21
751
  0
LINE
  8
0
 10
895
 20
751
 11
898
 21
751
  0
LINE
  8
0
 10
898
 20
751
 11
898
 21
741
  0
LINE
  8
0
 10
898
 20
741
 11
895
 21
741
  0
LINE
  8
0
 10
895
 20
741
 11
895
 21
731
  0
LINE
  8
0
 10
895
 20
731
 11
898
 21
731
  0
LINE
  8
0
 10
898
 20
731
 11
898
 21
721
  0
LINE
  8
0
 10
898
 20
721
 11
895
 21
721
  0
LINE
  8
0
 10
895
 20
721
 11
895
 21
711
  0
LINE
  8
0
 10
895
 20
711
 11
898
 21
711
  0
LINE
  8
0
 10
898
 20
711
 11
898
 21
701
  0
LINE
  8
0
 10
898
 20
701
 11
895
 21
701
  0
LINE
  8
0
 10
895
 20
701
 11
895
 21
691
  0
LINE
  8
0
 10
895
 20
691
 11
898
 21
691
  0
LINE
  8
0
 10
898
 20
691
 11
898
 21
681
  0
LINE
  8
0
 10
898
 20
681
 11
895
 21
681
  0
LINE
  8
0
 10
895
 20
681
 11
895
 21
671
  0
LINE
  8
0
 10
895
 20
671
 11
898
 21
671
  0
LINE
  8
0
 10
898
 20
671
 11
898
 21
661
  0
LINE
  8
0
 10
898
 20
661
 11
895
 21
661
  0
LINE
  8
0
 10
895
 20
661
 11
895
 21
651
  0
LINE
  8
0
 10
895
 20
651
 11
898
 21
651
  0
LINE
  8
0
 10
898
 20
651
 11
898
 21
641
  0
LINE
  8
0
 10
898
 20
641
 11
895
 21
641
  0
LINE
  8
0
 10
895
 20
641
 11
895
 21
631
  0
LINE
  8
0
 10
895
 20
631
 11
898
 21
631
  0
LINE
  8
0
 10
898
 20
631
 11
898
 21
621
  0
LINE
  8
0
 10
898
 20
621
 11
895
 21
621
  0
LINE
  8
0
 10
895
 20
621
 11
895
 21
611
  0
LINE
  8
0
 10
895
 20
611
 11
898
 21
611
  0
LINE
  8
0
 10
898
 20
611
 11
898
 21
604
  0
LINE
  8
0
 10
898
 20
604
 11
905
 21
604
  0
LINE
  8
0
 10
905
 20
604
 11
905
 21
601
  0
LINE
  8
0
 10
905
 20
601
 11
915
 21
601
  0
LINE
  8
0
 10
915
 20
601
 11
915
 21
604
  0
LINE
  8
0
 10
698.95
 20
600
 11
601.05
 21
600
  0
LINE
  8
0
 10
601.05
 20
600
 11
601.05
 21
0
  0
LINE
  8
0
 10
601.05
 20
0
 11
698.95
 21
0
  0
LINE
  8
0
 10
698.95
 20
0
 11
698.95
 21
600
  0
LINE
  8
0
 10
598.95
 20
600
 11
550
 21
600
  0
LINE
  8
0
 10
550
 20
600
 11
550
 21
0
  0
LINE
  8
0
 10
550
 20
0
 11
598.95
 21
0
  0
LINE
  8
0
 10
598.95
 20
0
 11
598.95
 21
600
  0
LINE
  8
0
 10
798.95
 20
600
 11
701.05
 21
600
  0
LINE
  8
0
 10
701.05
 20
600
 11
701.05
 21
0
  0
LINE
  8
0
 10
701.05
 20
0
 11
798.95
 21
0
  0
LINE
  8
0
 10
798.95
 20
0
 11
798.95
 21
600
  0
LINE
  8
0
 10
898.95
 20
600
 11
801.05
 21
600
  0
LINE
  8
0
 10
801.05
 20
600
 11
801.05
 21
0
  0
LINE
  8
0
 10
801.05
 20
0
 11
898.95
 21
0
  0
LINE
  8
0
 10
898.95
 20
0
 11
898.95
 21
600
  0
LINE
  8
0
 10
950
 20
600
 11
901.05
 21
600
  0
LINE
  8
0
 10
901.05
 20
600
 11
901.05
 21
0
  0
LINE
  8
0
 10
901.05
 20
0
 11
950
 21
0
  0
LINE
  8
0
 10
950
 20
0
 11
950
 21
600
  0
LINE
  8
0
 10
49
 20
39.25
 11
32
 21
39.25
  0
LINE
  8
0
 10
32
 20
39.25
 11
32
 21
42.25
  0
LINE
  8
0
 10
32
 20
42.25
 11
49
 21
42.25
  0
LINE
  8
0
 10
49
 20
42.25
 11
49
 21
51.75
  0
LINE
  8
0
 10
49
 20
51.75
 11
32
 21
51.75
  0
LINE
  8
0
 10
32
 20
51.75
 11
32
 21
54.75
  0
LINE
  8
0
 10
32
 20
54.75
 11
49
 21
54.75
  0
LINE
  8
0
 10
49
 20
54.75
 11
49
 21
139.25
  0
LINE
  8
0
 10
49
 20
139.25
 11
32
 21
139.25
  0
LINE
  8
0
 10
32
 20
139.25
 11
32
 21
142.25
  0
LINE
  8
0
 10
32
 20
142.25
 11
49
 21
142.25
  0
LINE
  8
0
 10
49
 20
142.25
 11
49
 21
151.75
  0
LINE
  8
0
 10
49
 20
151.75
 11
32
 21
151.75
  0
LINE
  8
0
 10
32
 20
151.75
 11
32
 21
154.75
  0
LINE
  8
0
 10
32
 20
154.75
 11
49
 21
154.75
  0
LINE
  8
0
 10
49
 20
154.75
 11
49
 21
239.25
  0
LINE
  8
0
 10
49
 20
239.25
 11
32
 21
239.25
  0
LINE
  8
0
 10
32
 20
239.25
 11
32
 21
242.25
  0
LINE
  8
0
 10
32
 20
242.25
 11
49
 21
242.25
  0
LINE
  8
0
 10
49
 20
242.25
 11
49
 21
251.75
  0
LINE
  8
0
 10
49
 20
251.75
 11
32
 21
251.75
  0
LINE
  8
0
 10
32
 20
251.75
 11
32
 21
254.75
  0
LINE
  8
0
 10
32
 20
254.75
 11
49
 21
254.75
  0
LINE
  8
0
 10
49
 20
254.75
 11
49
 21
339.25
  0
LINE
  8
0
 10
49
 20
339.25
 11
32
 21
339.25
  0
LINE
  8
0
 10
32
 20
339.25
 11
32
 21
342.25
  0
LINE
  8
0
 10
32
 20
342.25
 11
49
 21
342.25
  0
LINE
  8
0
 10
49
 20
342.25
 11
49
 21
351.75
  0
LINE
  8
0
 10
49
 20
351.75
 11
32
 21
351.75
  0
LINE
  8
0
 10
32
 20
351.75
 11
32
 21
354.75
  0
LINE
  8
0
 10
32
 20
354.75
 11
49
 21
354.75
  0
LINE
  8
0
 10
49
 20
354.75
 11
49
 21
439.25
  0
LINE
  8
0
 10
49
 20
439.25
 11
32
 21
439.25
  0
LINE
  8
0
 10
32
 20
439.25
 11
32
 21
442.25
  0
LINE
  8
0
 10
32
 20
442.25
 11
49
 21
442.25
  0
LINE
  8
0
 10
49
 20
442.25
 11
49
 21
451.75
  0
LINE
  8
0
 10
49
 20
451.75
 11
32
 21
451.75
  0
LINE
  8
0
 10
32
 20
451.75
 11
32
 21
454.75
  0
LINE
  8
0
 10
32
 20
454.75
 11
49
 21
454.75
  0
LINE
  8
0
 10
49
 20
454.75
 11
49
 21
539.25
  0
LINE
  8
0
 10
49
 20
539.25
 11
32
 21
539.25
  0
LINE
  8
0
 10
32
 20
539.25
 11
32
 21
542.25
  0
LINE
  8
0
 10
32
 20
542.25
 11
49
 21
542.25
  0
LINE
  8
0
 10
49
 20
542.25
 11
49
 21
551.75
  0
LINE
  8
0
 10
49
 20
551.75
 11
32
 21
551.75
  0
LINE
  8
0
 10
32
 20
551.75
 11
32
 21
554.75
  0
LINE
  8
0
 10
32
 20
554.75
 11
49
 21
554.75
  0
LINE
  8
0
 10
49
 20
554.75
 11
49
 21
594
  0
LINE
  8
0
 10
49
 20
594
 11
25
 21
594
  0
LINE
  8
0
 10
25
 20
594
 11
25
 21
0
  0
LINE
  8
0
 10
25
 20
0
 11
49
 21
0
  0
LINE
  8
0
 10
49
 20
0
 11
49
 21
39.25
  0
LINE
  8
0
 10
324
 20
39.25
 11
307
 21
39.25
  0
LINE
  8
0
 10
307
 20
39.25
 11
307
 21
42.25
  0
LINE
  8
0
 10
307
 20
42.25
 11
324
 21
42.25
  0
LINE
  8
0
 10
324
 20
42.25
 11
324
 21
51.75
  0
LINE
  8
0
 10
324
 20
51.75
 11
307
 21
51.75
  0
LINE
  8
0
 10
307
 20
51.75
 11
307
 21
54.75
  0
LINE
  8
0
 10
307
 20
54.75
 11
324
 21
54.75
  0
LINE
  8
0
 10
324
 20
54.75
 11
324
 21
139.25
  0
LINE
  8
0
 10
324
 20
139.25
 11
307
 21
139.25
  0
LINE
  8
0
 10
307
 20
139.25
 11
307
 21
142.25
  0
LINE
  8
0
 10
307
 20
142.25
 11
324
 21
142.25
  0
LINE
  8
0
 10
324
 20
142.25
 11
324
 21
151.75
  0
LINE
  8
0
 10
324
 20
151.75
 11
307
 21
151.75
  0
LINE
  8
0
 10
307
 20
151.75
 11
307
 21
154.75
  0
LINE
  8
0
 10
307
 20
154.75
 11
324
 21
154.75
  0
LINE
  8
0
 10
324
 20
154.75
 11
324
 21
239.25
  0
LINE
  8
0
 10
324
 20
239.25
 11
307
 21
239.25
  0
LINE
  8
0
 10
307
 20
239.25
 11
307
 21
242.25
  0
LINE
  8
0
 10
307
 20
242.25
 11
324
 21
242.25
  0
LINE
  8
0
 10
324
 20
242.25
 11
324
 21
251.75
  0
LINE
  8
0
 10
324
 20
251.75
 11
307
 21
251.75
  0
LINE
  8
0
 10
307
 20
251.75
 11
307
 21
254.75
  0
LINE
  8
0
 10
307
 20
254.75
 11
324
 21
254.75
  0
LINE
  8
0
 10
324
 20
254.75
 11
324
 21
289.25
  0
LINE
  8
0
 10
324
 20
289.25
 11
307
 21
289.25
  0
LINE
  8
0
 10
307
 20
289.25
 11
307
 21
292.25
  0
LINE
  8
0
 10
307
 20
292.25
 11
324
 21
292.25
  0
LINE
  8
0
 10
324
 20
292.25
 11
324
 21
301.75
  0
LINE
  8
0
 10
324
 20
301.75
 11
307
 21
301.75
  0
LINE
  8
0
 10
307
 20
301.75
 11
307
 21
304.75
  0
LINE
  8
0
 10
307
 20
304.75
 11
324
 21
304.75
  0
LINE
  8
0
 10
324
 20
304.75
 11
324
 21
339.25
  0
LINE
  8
0
 10
324
 20
339.25
 11
307
 21
339.25
  0
LINE
  8
0
 10
307
 20
339.25
 11
307
 21
342.25
  0
LINE
  8
0
 10
307
 20
342.25
 11
324
 21
342.25
  0
LINE
  8
0
 10
324
 20
342.25
 11
324
 21
351.75
  0
LINE
  8
0
 10
324
 20
351.75
 11
307
 21
351.75
  0
LINE
  8
0
 10
307
 20
351.75
 11
307
 21
354.75
  0
LINE
  8
0
 10
307
 20
354.75
 11
324
 21
354.75
  0
LINE
  8
0
 10
324
 20
354.75
 11
324
 21
439.25
  0
LINE
  8
0
 10
324
 20
439.25
 11
307
 21
439.25
  0
LINE
  8
0
 10
307
 20
439.25
 11
307
 21
442.25
  0
LINE
  8
0
 10
307
 20
442.25
 11
324
 21
442.25
  0
LINE
  8
0
 10
324
 20
442.25
 11
324
 21
451.75
  0
LINE
  8
0
 10
324
 20
451.75
 11
307
 21
451.75
  0
LINE
  8
0
 10
307
 20
451.75
 11
307
 21
454.75
  0
LINE
  8
0
 10
307
 20
454.75
 11
324
 21
454.75
  0
LINE
  8
0
 10
324
 20
454.75
 11
324
 21
539.25
  0
LINE
  8
0
 10
324
 20
539.25
 11
307
 21
539.25
  0
LINE
  8
0
 10
307
 20
539.25
 11
307
 21
542.25
  0
LINE
  8
0
 10
307
 20
542.25
 11
324
 21
542.25
  0
LINE
  8
0
 10
324
 20
542.25
 11
324
 21
551.75
  0
LINE
  8
0
 10
324
 20
551.75
 11
307
 21
551.75
  0
LINE
  8
0
 10
307
 20
551.75
 11
307
 21
554.75
  0
LINE
  8
0
 10
307
 20
554.75
 11
324
 21
554.75
  0
LINE
  8
0
 10
324
 20
554.75
 11
324
 21
594
  0
LINE
  8
0
 10
324
 20
594
 11
300
 21
594
  0
LINE
  8
0
 10
300
 20
594
 11
300
 21
0
  0
LINE
  8
0
 10
300
 20
0
 11
324
 21
0
  0
LINE
  8
0
 10
324
 20
0
 11
324
 21
39.25
  0
LINE
  8
0
 10
349
 20
39.25
 11
332
 21
39.25
  0
LINE
  8
0
 10
332
 20
39.25
 11
332
 21
42.25
  0
LINE
  8
0
 10
332
 20
42.25
 11
349
 21
42.25
  0
LINE
  8
0
 10
349
 20
42.25
 11
349
 21
51.75
  0
LINE
  8
0
 10
349
 20
51.75
 11
332
 21
51.75
  0
LINE
  8
0
 10
332
 20
51.75
 11
332
 21
54.75
  0
LINE
  8
0
 10
332
 20
54.75
 11
349
 21
54.75
  0
LINE
  8
0
 10
349
 20
54.75
 11
349
 21
139.25
  0
LINE
  8
0
 10
349
 20
139.25
 11
332
 21
139.25
  0
LINE
  8
0
 10
332
 20
139.25
 11
332
 21
142.25
  0
LINE
  8
0
 10
332
 20
142.25
 11
349
 21
142.25
  0
LINE
  8
0
 10
349
 20
142.25
 11
349
 21
151.75
  0
LINE
  8
0
 10
349
 20
151.75
 11
332
 21
151.75
  0
LINE
  8
0
 10
332
 20
151.75
 11
332
 21
154.75
  0
LINE
  8
0
 10
332
 20
154.75
 11
349
 21
154.75
  0
LINE
  8
0
 10
349
 20
154.75
 11
349
 21
239.25
  0
LINE
  8
0
 10
349
 20
239.25
 11
332
 21
239.25
  0
LINE
  8
0
 10
332
 20
239.25
 11
332
 21
242.25
  0
LINE
  8
0
 10
332
 20
242.25
 11
349
 21
242.25
  0
LINE
  8
0
 10
349
 20
242.25
 11
349
 21
251.75
  0
LINE
  8
0
 10
349
 20
251.75
 11
332
 21
251.75
  0
LINE
  8
0
 10
332
 20
251.75
 11
332
 21
254.75
  0
LINE
  8
0
 10
332
 20
254.75
 11
349
 21
254.75
  0
LINE
  8
0
 10
349
 20
254.75
 11
349
 21
289.25
  0
LINE
  8
0
 10
349
 20
289.25
 11
332
 21
289.25
  0
LINE
  8
0
 10
332
 20
289.25
 11
332
 21
292.25
  0
LINE
  8
0
 10
332
 20
292.25
 11
349
 21
292.25
  0
LINE
  8
0
 10
349
 20
292.25
 11
349
 21
301.75
  0
LINE
  8
0
 10
349
 20
301.75
 11
332
 21
301.75
  0
LINE
  8
0
 10
332
 20
301.75
 11
332
 21
304.75
  0
LINE
  8
0
 10
332
 20
304.75
 11
349
 21
304.75
  0
LINE
  8
0
 10
349
 20
304.75
 11
349
 21
339.25
  0
LINE
  8
0
 10
349
 20
339.25
 11
332
 21
339.25
  0
LINE
  8
0
 10
332
 20
339.25
 11
332
 21
342.25
  0
LINE
  8
0
 10
332
 20
342.25
 11
349
 21
342.25
  0
LINE
  8
0
 10
349
 20
342.25
 11
349
 21
351.75
  0
LINE
  8
0
 10
349
 20
351.75
 11
332
 21
351.75
  0
LINE
  8
0
 10
332
 20
351.75
 11
332
 21
354.75
  0
LINE
  8
0
 10
332
 20
354.75
 11
349
 21
354.75
  0
LINE
  8
0
 10
349
 20
354.75
 11
349
 21
439.25
  0
LINE
  8
0
 10
349
 20
439.25
 11
332
 21
439.25
  0
LINE
  8
0
 10
332
 20
439.25
 11
332
 21
442.25
  0
LINE
  8
0
 10
332
 20
442.25
 11
349
 21
442.25
  0
LINE
  8
0
 10
349
 20
442.25
 11
349
 21
451.75
  0
LINE
  8
0
 10
349
 20
451.75
 11
332
 21
451.75
  0
LINE
  8
0
 10
332
 20
451.75
 11
332
 21
454.75
  0
LINE
  8
0
 10
332
 20
454.75
 11
349
 21
454.75
  0
LINE
  8
0
 10
349
 20
454.75
 11
349
 21
539.25
  0
LINE
  8
0
 10
349
 20
539.25
 11
332
 21
539.25
  0
LINE
  8
0
 10
332
 20
539.25
 11
332
 21
542.25
  0
LINE
  8
0
 10
332
 20
542.25
 11
349
 21
542.25
  0
LINE
  8
0
 10
349
 20
542.25
 11
349
 21
551.75
  0
LINE
  8
0
 10
349
 20
551.75
 11
332
 21
551.75
  0
LINE
  8
0
 10
332
 20
551.75
 11
332
 21
554.75
  0
LINE
  8
0
 10
332
 20
554.75
 11
349
 21
554.75
  0
LINE
  8
0
 10
349
 20
554.75
 11
349
 21
594
  0
LINE
  8
0
 10
349
 20
594
 11
325
 21
594
  0
LINE
  8
0
 10
325
 20
594
 11
325
 21
0
  0
LINE
  8
0
 10
325
 20
0
 11
349
 21
0
  0
LINE
  8
0
 10
349
 20
0
 11
349
 21
39.25
  0
LINE
  8
0
 10
24
 20
39.25
 11
7
 21
39.25
  0
LINE
  8
0
 10
7
 20
39.25
 11
7
 21
42.25
  0
LINE
  8
0
 10
7
 20
42.25
 11
24
 21
42.25
  0
LINE
  8
0
 10
24
 20
42.25
 11
24
 21
51.75
  0
LINE
  8
0
 10
24
 20
51.75
 11
7
 21
51.75
  0
LINE
  8
0
 10
7
 20
51.75
 11
7
 21
54.75
  0
LINE
  8
0
 10
7
 20
54.75
 11
24
 21
54.75
  0
LINE
  8
0
 10
24
 20
54.75
 11
24
 21
139.25
  0
LINE
  8
0
 10
24
 20
139.25
 11
7
 21
139.25
  0
LINE
  8
0
 10
7
 20
139.25
 11
7
 21
142.25
  0
LINE
  8
0
 10
7
 20
142.25
 11
24
 21
142.25
  0
LINE
  8
0
 10
24
 20
142.25
 11
24
 21
151.75
  0
LINE
  8
0
 10
24
 20
151.75
 11
7
 21
151.75
  0
LINE
  8
0
 10
7
 20
151.75
 11
7
 21
154.75
  0
LINE
  8
0
 10
7
 20
154.75
 11
24
 21
154.75
  0
LINE
  8
0
 10
24
 20
154.75
 11
24
 21
239.25
  0
LINE
  8
0
 10
24
 20
239.25
 11
7
 21
239.25
  0
LINE
  8
0
 10
7
 20
239.25
 11
7
 21
242.25
  0
LINE
  8
0
 10
7
 20
242.25
 11
24
 21
242.25
  0
LINE
  8
0
 10
24
 20
242.25
 11
24
 21
251.75
  0
LINE
  8
0
 10
24
 20
251.75
 11
7
 21
251.75
  0
LINE
  8
0
 10
7
 20
251.75
 11
7
 21
254.75
  0
LINE
  8
0
 10
7
 20
254.75
 11
24
 21
254.75
  0
LINE
  8
0
 10
24
 20
254.75
 11
24
 21
339.25
  0
LINE
  8
0
 10
24
 20
339.25
 11
7
 21
339.25
  0
LINE
  8
0
 10
7
 20
339.25
 11
7
 21
342.25
  0
LINE
  8
0
 10
7
 20
342.25
 11
24
 21
342.25
  0
LINE
  8
0
 10
24
 20
342.25
 11
24
 21
351.75
  0
LINE
  8
0
 10
24
 20
351.75
 11
7
 21
351.75
  0
LINE
  8
0
 10
7
 20
351.75
 11
7
 21
354.75
  0
LINE
  8
0
 10
7
 20
354.75
 11
24
 21
354.75
  0
LINE
  8
0
 10
24
 20
354.75
 11
24
 21
439.25
  0
LINE
  8
0
 10
24
 20
439.25
 11
7
 21
439.25
  0
LINE
  8
0
 10
7
 20
439.25
 11
7
 21
442.25
  0
LINE
  8
0
 10
7
 20
442.25
 11
24
 21
442.25
  0
LINE
  8
0
 10
24
 20
442.25
 11
24
 21
451.75
  0
LINE
  8
0
 10
24
 20
451.75
 11
7
 21
451.75
  0
LINE
  8
0
 10
7
 20
451.75
 11
7
 21
454.75
  0
LINE
  8
0
 10
7
 20
454.75
 11
24
 21
454.75
  0
LINE
  8
0
 10
24
 20
454.75
 11
24
 21
539.25
  0
LINE
  8
0
 10
24
 20
539.25
 11
7
 21
539.25
  0
LINE
  8
0
 10
7
 20
539.25
 11
7
 21
542.25
  0
LINE
  8
0
 10
7
 20
542.25
 11
24
 21
542.25
  0
LINE
  8
0
 10
24
 20
542.25
 11
24
 21
551.75
  0
LINE
  8
0
 10
24
 20
551.75
 11
7
 21
551.75
  0
LINE
  8
0
 10
7
 20
551.75
 11
7
 21
554.75
  0
LINE
  8
0
 10
7
 20
554.75
 11
24
 21
554.75
  0
LINE
  8
0
 10
24
 20
554.75
 11
24
 21
594
  0
LINE
  8
0
 10
24
 20
594
 11
0
 21
594
  0
LINE
  8
0
 10
0
 20
594
 11
0
 21
0
  0
LINE
  8
0
 10
0
 20
0
 11
24
 21
0
  0
LINE
  8
0
 10
24
 20
0
 11
24
 21
39.25
  0
LINE
  8
0
 10
99
 20
39.25
 11
82
 21
39.25
  0
LINE
  8
0
 10
82
 20
39.25
 11
82
 21
42.25
  0
LINE
  8
0
 10
82
 20
42.25
 11
99
 21
42.25
  0
LINE
  8
0
 10
99
 20
42.25
 11
99
 21
51.75
  0
LINE
  8
0
 10
99
 20
51.75
 11
82
 21
51.75
  0
LINE
  8
0
 10
82
 20
51.75
 11
82
 21
54.75
  0
LINE
  8
0
 10
82
 20
54.75
 11
99
 21
54.75
  0
LINE
  8
0
 10
99
 20
54.75
 11
99
 21
139.25
  0
LINE
  8
0
 10
99
 20
139.25
 11
82
 21
139.25
  0
LINE
  8
0
 10
82
 20
139.25
 11
82
 21
142.25
  0
LINE
  8
0
 10
82
 20
142.25
 11
99
 21
142.25
  0
LINE
  8
0
 10
99
 20
142.25
 11
99
 21
151.75
  0
LINE
  8
0
 10
99
 20
151.75
 11
82
 21
151.75
  0
LINE
  8
0
 10
82
 20
151.75
 11
82
 21
154.75
  0
LINE
  8
0
 10
82
 20
154.75
 11
99
 21
154.75
  0
LINE
  8
0
 10
99
 20
154.75
 11
99
 21
239.25
  0
LINE
  8
0
 10
99
 20
239.25
 11
82
 21
239.25
  0
LINE
  8
0
 10
82
 20
239.25
 11
82
 21
242.25
  0
LINE
  8
0
 10
82
 20
242.25
 11
99
 21
242.25
  0
LINE
  8
0
 10
99
 20
242.25
 11
99
 21
251.75
  0
LINE
  8
0
 10
99
 20
251.75
 11
82
 21
251.75
  0
LINE
  8
0
 10
82
 20
251.75
 11
82
 21
254.75
  0
LINE
  8
0
 10
82
 20
254.75
 11
99
 21
254.75
  0
LINE
  8
0
 10
99
 20
254.75
 11
99
 21
339.25
  0
LINE
  8
0
 10
99
 20
339.25
 11
82
 21
339.25
  0
LINE
  8
0
 10
82
 20
339.25
 11
82
 21
342.25
  0
LINE
  8
0
 10
82
 20
342.25
 11
99
 21
342.25
  0
LINE
  8
0
 10
99
 20
342.25
 11
99
 21
351.75
  0
LINE
  8
0
 10
99
 20
351.75
 11
82
 21
351.75
  0
LINE
  8
0
 10
82
 20
351.75
 11
82
 21
354.75
  0
LINE
  8
0
 10
82
 20
354.75
 11
99
 21
354.75
  0
LINE
  8
0
 10
99
 20
354.75
 11
99
 21
439.25
  0
LINE
  8
0
 10
99
 20
439.25
 11
82
 21
439.25
  0
LINE
  8
0
 10
82
 20
439.25
 11
82
 21
442.25
  0
LINE
  8
0
 10
82
 20
442.25
 11
99
 21
442.25
  0
LINE
  8
0
 10
99
 20
442.25
 11
99
 21
451.75
  0
LINE
  8
0
 10
99
 20
451.75
 11
82
 21
451.75
  0
LINE
  8
0
 10
82
 20
451.75
 11
82
 21
454.75
  0
LINE
  8
0
 10
82
 20
454.75
 11
99
 21
454.75
  0
LINE
  8
0
 10
99
 20
454.75
 11
99
 21
539.25
  0
LINE
  8
0
 10
99
 20
539.25
 11
82
 21
539.25
  0
LINE
  8
0
 10
82
 20
539.25
 11
82
 21
542.25
  0
LINE
  8
0
 10
82
 20
542.25
 11
99
 21
542.25
  0
LINE
  8
0
 10
99
 20
542.25
 11
99
 21
551.75
  0
LINE
  8
0
 10
99
 20
551.75
 11
82
 21
551.75
  0
LINE
  8
0
 10
82
 20
551.75
 11
82
 21
554.75
  0
LINE
  8
0
 10
82
 20
554.75
 11
99
 21
554.75
  0
LINE
  8
0
 10
99
 20
554.75
 11
99
 21
594
  0
LINE
  8
0
 10
99
 20
594
 11
75
 21
594
  0
LINE
  8
0
 10
75
 20
594
 11
75
 21
0
  0
LINE
  8
0
 10
75
 20
0
 11
99
 21
0
  0
LINE
  8
0
 10
99
 20
0
 11
99
 21
39.25
  0
LINE
  8
0
 10
74
 20
39.25
 11
57
 21
39.25
  0
LINE
  8
0
 10
57
 20
39.25
 11
57
 21
42.25
  0
LINE
  8
0
 10
57
 20
42.25
 11
74
 21
42.25
  0
LINE
  8
0
 10
74
 20
42.25
 11
74
 21
51.75
  0
LINE
  8
0
 10
74
 20
51.75
 11
57
 21
51.75
  0
LINE
  8
0
 10
57
 20
51.75
 11
57
 21
54.75
  0
LINE
  8
0
 10
57
 20
54.75
 11
74
 21
54.75
  0
LINE
  8
0
 10
74
 20
54.75
 11
74
 21
139.25
  0
LINE
  8
0
 10
74
 20
139.25
 11
57
 21
139.25
  0
LINE
  8
0
 10
57
 20
139.25
 11
57
 21
142.25
  0
LINE
  8
0
 10
57
 20
142.25
 11
74
 21
142.25
  0
LINE
  8
0
 10
74
 20
142.25
 11
74
 21
151.75
  0
LINE
  8
0
 10
74
 20
151.75
 11
57
 21
151.75
  0
LINE
  8
0
 10
57
 20
151.75
 11
57
 21
154.75
  0
LINE
  8
0
 10
57
 20
154.75
 11
74
 21
154.75
  0
LINE
  8
0
 10
74
 20
154.75
 11
74
 21
239.25
  0
LINE
  8
0
 10
74
 20
239.25
 11
57
 21
239.25
  0
LINE
  8
0
 10
57
 20
239.25
 11
57
 21
242.25
  0
LINE
  8
0
 10
57
 20
242.25
 11
74
 21
242.25
  0
LINE
  8
0
 10
74
 20
242.25
 11
74
 21
251.75
  0
LINE
  8
0
 10
74
 20
251.75
 11
57
 21
251.75
  0
LINE
  8
0
 10
57
 20
251.75
 11
57
 21
254.75
  0
LINE
  8
0
 10
57
 20
254.75
 11
74
 21
254.75
  0
LINE
  8
0
 10
74
 20
254.75
 11
74
 21
339.25
  0
LINE
  8
0
 10
74
 20
339.25
 11
57
 21
339.25
  0
LINE
  8
0
 10
57
 20
339.25
 11
57
 21
342.25
  0
LINE
  8
0
 10
57
 20
342.25
 11
74
 21
342.25
  0
LINE
  8
0
 10
74
 20
342.25
 11
74
 21
351.75
  0
LINE
  8
0
 10
74
 20
351.75
 11
57
 21
351.75
  0
LINE
  8
0
 10
57
 20
351.75
 11
57
 21
354.75
  0
LINE
  8
0
 10
57
 20
354.75
 11
74
 21
354.75
  0
LINE
  8
0
 10
74
 20
354.75
 11
74
 21
439.25
  0
LINE
  8
0
 10
74
 20
439.25
 11
57
 21
439.25
  0
LINE
  8
0
 10
57
 20
439.25
 11
57
 21
442.25
  0
LINE
  8
0
 10
57
 20
442.25
 11
74
 21
442.25
  0
LINE
  8
0
 10
74
 20
442.25
 11
74
 21
451.75
  0
LINE
  8
0
 10
74
 20
451.75
 11
57
 21
451.75
  0
LINE
  8
0
 10
57
 20
451.75
 11
57
 21
454.75
  0
LINE
  8
0
 10
57
 20
454.75
 11
74
 21
454.75
  0
LINE
  8
0
 10
74
 20
454.75
 11
74
 21
539.25
  0
LINE
  8
0
 10
74
 20
539.25
 11
57
 21
539.25
  0
LINE
  8
0
 10
57
 20
539.25
 11
57
 21
542.25
  0
LINE
  8
0
 10
57
 20
542.25
 11
74
 21
542.25
  0
LINE
  8
0
 10
74
 20
542.25
 11
74
 21
551.75
  0
LINE
  8
0
 10
74
 20
551.75
 11
57
 21
551.75
  0
LINE
  8
0
 10
57
 20
551.75
 11
57
 21
554.75
  0
LINE
  8
0
 10
57
 20
554.75
 11
74
 21
554.75
  0
LINE
  8
0
 10
74
 20
554.75
 11
74
 21
594
  0
LINE
  8
0
 10
74
 20
594
 11
50
 21
594
  0
LINE
  8
0
 10
50
 20
594
 11
50
 21
0
  0
LINE
  8
0
 10
50
 20
0
 11
74
 21
0
  0
LINE
  8
0
 10
74
 20
0
 11
74
 21
39.25
  0
LINE
  8
0
 10
424
 20
42.95
 11
417
 21
42.95
  0
LINE
  8
0
 10
417
 20
42.95
 11
417
 21
45.95
  0
LINE
  8
0
 10
417
 20
45.95
 11
424
 21
45.95
  0
LINE
  8
0
 10
424
 20
45.95
 11
424
 21
48.05
  0
LINE
  8
0
 10
424
 20
48.05
 11
417
 21
48.05
  0
LINE
  8
0
 10
417
 20
48.05
 11
417
 21
51.05
  0
LINE
  8
0
 10
417
 20
51.05
 11
424
 21
51.05
  0
LINE
  8
0
 10
424
 20
51.05
 11
424
 21
142.95
  0
LINE
  8
0
 10
424
 20
142.95
 11
417
 21
142.95
  0
LINE
  8
0
 10
417
 20
142.95
 11
417
 21
145.95
  0
LINE
  8
0
 10
417
 20
145.95
 11
424
 21
145.95
  0
LINE
  8
0
 10
424
 20
145.95
 11
424
 21
148.05
  0
LINE
  8
0
 10
424
 20
148.05
 11
417
 21
148.05
  0
LINE
  8
0
 10
417
 20
148.05
 11
417
 21
151.05
  0
LINE
  8
0
 10
417
 20
151.05
 11
424
 21
151.05
  0
LINE
  8
0
 10
424
 20
151.05
 11
424
 21
242.95
  0
LINE
  8
0
 10
424
 20
242.95
 11
417
 21
242.95
  0
LINE
  8
0
 10
417
 20
242.95
 11
417
 21
245.95
  0
LINE
  8
0
 10
417
 20
245.95
 11
424
 21
245.95
  0
LINE
  8
0
 10
424
 20
245.95
 11
424
 21
248.05
  0
LINE
  8
0
 10
424
 20
248.05
 11
417
 21
248.05
  0
LINE
  8
0
 10
417
 20
248.05
 11
417
 21
251.05
  0
LINE
  8
0
 10
417
 20
251.05
 11
424
 21
251.05
  0
LINE
  8
0
 10
424
 20
251.05
 11
424
 21
342.95
  0
LINE
  8
0
 10
424
 20
342.95
 11
417
 21
342.95
  0
LINE
  8
0
 10
417
 20
342.95
 11
417
 21
345.95
  0
LINE
  8
0
 10
417
 20
345.95
 11
424
 21
345.95
  0
LINE
  8
0
 10
424
 20
345.95
 11
424
 21
348.05
  0
LINE
  8
0
 10
424
 20
348.05
 11
417
 21
348.05
  0
LINE
  8
0
 10
417
 20
348.05
 11
417
 21
351.05
  0
LINE
  8
0
 10
417
 20
351.05
 11
424
 21
351.05
  0
LINE
  8
0
 10
424
 20
351.05
 11
424
 21
394
  0
LINE
  8
0
 10
424
 20
394
 11
400
 21
394
  0
LINE
  8
0
 10
400
 20
394
 11
400
 21
0
  0
LINE
  8
0
 10
400
 20
0
 11
424
 21
0
  0
LINE
  8
0
 10
424
 20
0
 11
424
 21
42.95
  0
LINE
  8
0
 10
224
 20
42.95
 11
217
 21
42.95
  0
LINE
  8
0
 10
217
 20
42.95
 11
217
 21
45.95
  0
LINE
  8
0
 10
217
 20
45.95
 11
224
 21
45.95
  0
LINE
  8
0
 10
224
 20
45.95
 11
224
 21
48.05
  0
LINE
  8
0
 10
224
 20
48.05
 11
217
 21
48.05
  0
LINE
  8
0
 10
217
 20
48.05
 11
217
 21
51.05
  0
LINE
  8
0
 10
217
 20
51.05
 11
224
 21
51.05
  0
LINE
  8
0
 10
224
 20
51.05
 11
224
 21
142.95
  0
LINE
  8
0
 10
224
 20
142.95
 11
217
 21
142.95
  0
LINE
  8
0
 10
217
 20
142.95
 11
217
 21
145.95
  0
LINE
  8
0
 10
217
 20
145.95
 11
224
 21
145.95
  0
LINE
  8
0
 10
224
 20
145.95
 11
224
 21
148.05
  0
LINE
  8
0
 10
224
 20
148.05
 11
217
 21
148.05
  0
LINE
  8
0
 10
217
 20
148.05
 11
217
 21
151.05
  0
LINE
  8
0
 10
217
 20
151.05
 11
224
 21
151.05
  0
LINE
  8
0
 10
224
 20
151.05
 11
224
 21
242.95
  0
LINE
  8
0
 10
224
 20
242.95
 11
217
 21
242.95
  0
LINE
  8
0
 10
217
 20
242.95
 11
217
 21
245.95
  0
LINE
  8
0
 10
217
 20
245.95
 11
224
 21
245.95
  0
LINE
  8
0
 10
224
 20
245.95
 11
224
 21
248.05
  0
LINE
  8
0
 10
224
 20
248.05
 11
217
 21
248.05
  0
LINE
  8
0
 10
217
 20
248.05
 11
217
 21
251.05
  0
LINE
  8
0
 10
217
 20
251.05
 11
224
 21
251.05
  0
LINE
  8
0
 10
224
 20
251.05
 11
224
 21
394
  0
LINE
  8
0
 10
224
 20
394
 11
200
 21
394
  0
LINE
  8
0
 10
200
 20
394
 11
200
 21
0
  0
LINE
  8
0
 10
200
 20
0
 11
224
 21
0
  0
LINE
  8
0
 10
224
 20
0
 11
224
 21
42.95
  0
LINE
  8
0
 10
124
 20
42.95
 11
117
 21
42.95
  0
LINE
  8
0
 10
117
 20
42.95
 11
117
 21
45.95
  0
LINE
  8
0
 10
117
 20
45.95
 11
124
 21
45.95
  0
LINE
  8
0
 10
124
 20
45.95
 11
124
 21
48.05
  0
LINE
  8
0
 10
124
 20
48.05
 11
117
 21
48.05
  0
LINE
  8
0
 10
117
 20
48.05
 11
117
 21
51.05
  0
LINE
  8
0
 10
117
 20
51.05
 11
124
 21
51.05
  0
LINE
  8
0
 10
124
 20
51.05
 11
124
 21
142.95
  0
LINE
  8
0
 10
124
 20
142.95
 11
117
 21
142.95
  0
LINE
  8
0
 10
117
 20
142.95
 11
117
 21
145.95
  0
LINE
  8
0
 10
117
 20
145.95
 11
124
 21
145.95
  0
LINE
  8
0
 10
124
 20
145.95
 11
124
 21
148.05
  0
LINE
  8
0
 10
124
 20
148.05
 11
117
 21
148.05
  0
LINE
  8
0
 10
117
 20
148.05
 11
117
 21
151.05
  0
LINE
  8
0
 10
117
 20
151.05
 11
124
 21
151.05
  0
LINE
  8
0
 10
124
 20
151.05
 11
124
 21
242.95
  0
LINE
  8
0
 10
124
 20
242.95
 11
117
 21
242.95
  0
LINE
  8
0
 10
117
 20
242.95
 11
117
 21
245.95
  0
LINE
  8
0
 10
117
 20
245.95
 11
124
 21
245.95
  0
LINE
  8
0
 10
124
 20
245.95
 11
124
 21
248.05
  0
LINE
  8
0
 10
124
 20
248.05
 11
117
 21
248.05
  0
LINE
  8
0
 10
117
 20
248.05
 11
117
 21
251.05
  0
LINE
  8
0
 10
117
 20
251.05
 11
124
 21
251.05
  0
LINE
  8
0
 10
124
 20
251.05
 11
124
 21
394
  0
LINE
  8
0
 10
124
 20
394
 11
100
 21
394
  0
LINE
  8
0
 10
100
 20
394
 11
100
 21
0
  0
LINE
  8
0
 10
100
 20
0
 11
124
 21
0
  0
LINE
  8
0
 10
124
 20
0
 11
124
 21
42.95
  0
LINE
  8
0
 10
374
 20
42.95
 11
367
 21
42.95
  0
LINE
  8
0
 10
367
 20
42.95
 11
367
 21
45.95
  0
LINE
  8
0
 10
367
 20
45.95
 11
374
 21
45.95
  0
LINE
  8
0
 10
374
 20
45.95
 11
374
 21
48.05
  0
LINE
  8
0
 10
374
 20
48.05
 11
367
 21
48.05
  0
LINE
  8
0
 10
367
 20
48.05
 11
367
 21
51.05
  0
LINE
  8
0
 10
367
 20
51.05
 11
374
 21
51.05
  0
LINE
  8
0
 10
374
 20
51.05
 11
374
 21
142.95
  0
LINE
  8
0
 10
374
 20
142.95
 11
367
 21
142.95
  0
LINE
  8
0
 10
367
 20
142.95
 11
367
 21
145.95
  0
LINE
  8
0
 10
367
 20
145.95
 11
374
 21
145.95
  0
LINE
  8
0
 10
374
 20
145.95
 11
374
 21
148.05
  0
LINE
  8
0
 10
374
 20
148.05
 11
367
 21
148.05
  0
LINE
  8
0
 10
367
 20
148.05
 11
367
 21
151.05
  0
LINE
  8
0
 10
367
 20
151.05
 11
374
 21
151.05
  0
LINE
  8
0
 10
374
 20
151.05
 11
374
 21
242.95
  0
LINE
  8
0
 10
374
 20
242.95
 11
367
 21
242.95
  0
LINE
  8
0
 10
367
 20
242.95
 11
367
 21
245.95
  0
LINE
  8
0
 10
367
 20
245.95
 11
374
 21
245.95
  0
LINE
  8
0
 10
374
 20
245.95
 11
374
 21
248.05
  0
LINE
  8
0
 10
374
 20
248.05
 11
367
 21
248.05
  0
LINE
  8
0
 10
367
 20
248.05
 11
367
 21
251.05
  0
LINE
  8
0
 10
367
 20
251.05
 11
374
 21
251.05
  0
LINE
  8
0
 10
374
 20
251.05
 11
374
 21
342.95
  0
LINE
  8
0
 10
374
 20
342.95
 11
367
 21
342.95
  0
LINE
  8
0
 10
367
 20
342.95
 11
367
 21
345.95
  0
LINE
  8
0
 10
367
 20
345.95
 11
374
 21
345.95
  0
LINE
  8
0
 10
374
 20
345.95
 11
374
 21
348.05
  0
LINE
  8
0
 10
374
 20
348.05
 11
367
 21
348.05
  0
LINE
  8
0
 10
367
 20
348.05
 11
367
 21
351.05
  0
LINE
  8
0
 10
367
 20
351.05
 11
374
 21
351.05
  0
LINE
  8
0
 10
374
 20
351.05
 11
374
 21
394
  0
LINE
  8
0
 10
374
 20
394
 11
350
 21
394
  0
LINE
  8
0
 10
350
 20
394
 11
350
 21
0
  0
LINE
  8
0
 10
350
 20
0
 11
374
 21
0
  0
LINE
  8
0
 10
374
 20
0
 11
374
 21
42.95
  0
LINE
  8
0
 10
299
 20
42.95
 11
292
 21
42.95
  0
LINE
  8
0
 10
292
 20
42.95
 11
292
 21
45.95
  0
LINE
  8
0
 10
292
 20
45.95
 11
299
 21
45.95
  0
LINE
  8
0
 10
299
 20
45.95
 11
299
 21
48.05
  0
LINE
  8
0
 10
299
 20
48.05
 11
292
 21
48.05
  0
LINE
  8
0
 10
292
 20
48.05
 11
292
 21
51.05
  0
LINE
  8
0
 10
292
 20
51.05
 11
299
 21
51.05
  0
LINE
  8
0
 10
299
 20
51.05
 11
299
 21
142.95
  0
LINE
  8
0
 10
299
 20
142.95
 11
292
 21
142.95
  0
LINE
  8
0
 10
292
 20
142.95
 11
292
 21
145.95
  0
LINE
  8
0
 10
292
 20
145.95
 11
299
 21
145.95
  0
LINE
  8
0
 10
299
 20
145.95
 11
299
 21
148.05
  0
LINE
  8
0
 10
299
 20
148.05
 11
292
 21
148.05
  0
LINE
  8
0
 10
292
 20
148.05
 11
292
 21
151.05
  0
LINE
  8
0
 10
292
 20
151.05
 11
299
 21
151.05
  0
LINE
  8
0
 10
299
 20
151.05
 11
299
 21
242.95
  0
LINE
  8
0
 10
299
 20
242.95
 11
292
 21
242.95
  0
LINE
  8
0
 10
292
 20
242.95
 11
292
 21
245.95
  0
LINE
  8
0
 10
292
 20
245.95
 11
299
 21
245.95
  0
LINE
  8
0
 10
299
 20
245.95
 11
299
 21
248.05
  0
LINE
  8
0
 10
299
 20
248.05
 11
292
 21
248.05
  0
LINE
  8
0
 10
292
 20
248.05
 11
292
 21
251.05
  0
LINE
  8
0
 10
292
 20
251.05
 11
299
 21
251.05
  0
LINE
  8
0
 10
299
 20
251.05
 11
299
 21
394
  0
LINE
  8
0
 10
299
 20
394
 11
275
 21
394
  0
LINE
  8
0
 10
275
 20
394
 11
275
 21
0
  0
LINE
  8
0
 10
275
 20
0
 11
299
 21
0
  0
LINE
  8
0
 10
299
 20
0
 11
299
 21
42.95
  0
LINE
  8
0
 10
274
 20
42.95
 11
267
 21
42.95
  0
LINE
  8
0
 10
267
 20
42.95
 11
267
 21
45.95
  0
LINE
  8
0
 10
267
 20
45.95
 11
274
 21
45.95
  0
LINE
  8
0
 10
274
 20
45.95
 11
274
 21
48.05
  0
LINE
  8
0
 10
274
 20
48.05
 11
267
 21
48.05
  0
LINE
  8
0
 10
267
 20
48.05
 11
267
 21
51.05
  0
LINE
  8
0
 10
267
 20
51.05
 11
274
 21
51.05
  0
LINE
  8
0
 10
274
 20
51.05
 11
274
 21
142.95
  0
LINE
  8
0
 10
274
 20
142.95
 11
267
 21
142.95
  0
LINE
  8
0
 10
267
 20
142.95
 11
267
 21
145.95
  0
LINE
  8
0
 10
267
 20
145.95
 11
274
 21
145.95
  0
LINE
  8
0
 10
274
 20
145.95
 11
274
 21
148.05
  0
LINE
  8
0
 10
274
 20
148.05
 11
267
 21
148.05
  0
LINE
  8
0
 10
267
 20
148.05
 11
267
 21
151.05
  0
LINE
  8
0
 10
267
 20
151.05
 11
274
 21
151.05
  0
LINE
  8
0
 10
274
 20
151.05
 11
274
 21
242.95
  0
LINE
  8
0
 10
274
 20
242.95
 11
267
 21
242.95
  0
LINE
  8
0
 10
267
 20
242.95
 11
267
 21
245.95
  0
LINE
  8
0
 10
267
 20
245.95
 11
274
 21
245.95
  0
LINE
  8
0
 10
274
 20
245.95
 11
274
 21
248.05
  0
LINE
  8
0
 10
274
 20
248.05
 11
267
 21
248.05
  0
LINE
  8
0
 10
267
 20
248.05
 11
267
 21
251.05
  0
LINE
  8
0
 10
267
 20
251.05
 11
274
 21
251.05
  0
LINE
  8
0
 10
274
 20
251.05
 11
274
 21
394
  0
LINE
  8
0
 10
274
 20
394
 11
250
 21
394
  0
LINE
  8
0
 10
250
 20
394
 11
250
 21
0
  0
LINE
  8
0
 10
250
 20
0
 11
274
 21
0
  0
LINE
  8
0
 10
274
 20
0
 11
274
 21
42.95
  0
LINE
  8
0
 10
174
 20
42.95
 11
167
 21
42.95
  0
LINE
  8
0
 10
167
 20
42.95
 11
167
 21
45.95
  0
LINE
  8
0
 10
167
 20
45.95
 11
174
 21
45.95
  0
LINE
  8
0
 10
174
 20
45.95
 11
174
 21
48.05
  0
LINE
  8
0
 10
174
 20
48.05
 11
167
 21
48.05
  0
LINE
  8
0
 10
167
 20
48.05
 11
167
 21
51.05
  0
LINE
  8
0
 10
167
 20
51.05
 11
174
 21
51.05
  0
LINE
  8
0
 10
174
 20
51.05
 11
174
 21
142.95
  0
LINE
  8
0
 10
174
 20
142.95
 11
167
 21
142.95
  0
LINE
  8
0
 10
167
 20
142.95
 11
167
 21
145.95
  0
LINE
  8
0
 10
167
 20
145.95
 11
174
 21
145.95
  0
LINE
  8
0
 10
174
 20
145.95
 11
174
 21
148.05
  0
LINE
  8
0
 10
174
 20
148.05
 11
167
 21
148.05
  0
LINE
  8
0
 10
167
 20
148.05
 11
167
 21
151.05
  0
LINE
  8
0
 10
167
 20
151.05
 11
174
 21
151.05
  0
LINE
  8
0
 10
174
 20
151.05
 11
174
 21
242.95
  0
LINE
  8
0
 10
174
 20
242.95
 11
167
 21
242.95
  0
LINE
  8
0
 10
167
 20
242.95
 11
167
 21
245.95
  0
LINE
  8
0
 10
167
 20
245.95
 11
174
 21
245.95
  0
LINE
  8
0
 10
174
 20
245.95
 11
174
 21
248.05
  0
LINE
  8
0
 10
174
 20
248.05
 11
167
 21
248.05
  0
LINE
  8
0
 10
167
 20
248.05
 11
167
 21
251.05
  0
LINE
  8
0
 10
167
 20
251.05
 11
174
 21
251.05
  0
LINE
  8
0
 10
174
 20
251.05
 11
174
 21
394
  0
LINE
  8
0
 10
174
 20
394
 11
150
 21
394
  0
LINE
  8
0
 10
150
 20
394
 11
150
 21
0
  0
LINE
  8
0
 10
150
 20
0
 11
174
 21
0
  0
LINE
  8
0
 10
174
 20
0
 11
174
 21
42.95
  0
LINE
  8
0
 10
449
 20
42.95
 11
442
 21
42.95
  0
LINE
  8
0
 10
442
 20
42.95
 11
442
 21
45.95
  0
LINE
  8
0
 10
442
 20
45.95
 11
449
 21
45.95
  0
LINE
  8
0
 10
449
 20
45.95
 11
449
 21
48.05
  0
LINE
  8
0
 10
449
 20
48.05
 11
442
 21
48.05
  0
LINE
  8
0
 10
442
 20
48.05
 11
442
 21
51.05
  0
LINE
  8
0
 10
442
 20
51.05
 11
449
 21
51.05
  0
LINE
  8
0
 10
449
 20
51.05
 11
449
 21
142.95
  0
LINE
  8
0
 10
449
 20
142.95
 11
442
 21
142.95
  0
LINE
  8
0
 10
442
 20
142.95
 11
442
 21
145.95
  0
LINE
  8
0
 10
442
 20
145.95
 11
449
 21
145.95
  0
LINE
  8
0
 10
449
 20
145.95
 11
449
 21
148.05
  0
LINE
  8
0
 10
449
 20
148.05
 11
442
 21
148.05
  0
LINE
  8
0
 10
442
 20
148.05
 11
442
 21
151.05
  0
LINE
  8
0
 10
442
 20
151.05
 11
449
 21
151.05
  0
LINE
  8
0
 10
449
 20
151.05
 11
449
 21
242.95
  0
LINE
  8
0
 10
449
 20
242.95
 11
442
 21
242.95
  0
LINE
  8
0
 10
442
 20
242.95
 11
442
 21
245.95
  0
LINE
  8
0
 10
442
 20
245.95
 11
449
 21
245.95
  0
LINE
  8
0
 10
449
 20
245.95
 11
449
 21
248.05
  0
LINE
  8
0
 10
449
 20
248.05
 11
442
 21
248.05
  0
LINE
  8
0
 10
442
 20
248.05
 11
442
 21
251.05
  0
LINE
  8
0
 10
442
 20
251.05
 11
449
 21
251.05
  0
LINE
  8
0
 10
449
 20
251.05
 11
449
 21
342.95
  0
LINE
  8
0
 10
449
 20
342.95
 11
442
 21
342.95
  0
LINE
  8
0
 10
442
 20
342.95
 11
442
 21
345.95
  0
LINE
  8
0
 10
442
 20
345.95
 11
449
 21
345.95
  0
LINE
  8
0
 10
449
 20
345.95
 11
449
 21
348.05
  0
LINE
  8
0
 10
449
 20
348.05
 11
442
 21
348.05
  0
LINE
  8
0
 10
442
 20
348.05
 11
442
 21
351.05
  0
LINE
  8
0
 10
442
 20
351.05
 11
449
 21
351.05
  0
LINE
  8
0
 10
449
 20
351.05
 11
449
 21
394
  0
LINE
  8
0
 10
449
 20
394
 11
425
 21
394
  0
LINE
  8
0
 10
425
 20
394
 11
425
 21
0
  0
LINE
  8
0
 10
425
 20
0
 11
449
 21
0
  0
LINE
  8
0
 10
449
 20
0
 11
449
 21
42.95
  0
LINE
  8
0
 10
149
 20
42.95
 11
142
 21
42.95
  0
LINE
  8
0
 10
142
 20
42.95
 11
142
 21
45.95
  0
LINE
  8
0
 10
142
 20
45.95
 11
149
 21
45.95
  0
LINE
  8
0
 10
149
 20
45.95
 11
149
 21
48.05
  0
LINE
  8
0
 10
149
 20
48.05
 11
142
 21
48.05
  0
LINE
  8
0
 10
142
 20
48.05
 11
142
 21
51.05
  0
LINE
  8
0
 10
142
 20
51.05
 11
149
 21
51.05
  0
LINE
  8
0
 10
149
 20
51.05
 11
149
 21
142.95
  0
LINE
  8
0
 10
149
 20
142.95
 11
142
 21
142.95
  0
LINE
  8
0
 10
142
 20
142.95
 11
142
 21
145.95
  0
LINE
  8
0
 10
142
 20
145.95
 11
149
 21
145.95
  0
LINE
  8
0
 10
149
 20
145.95
 11
149
 21
148.05
  0
LINE
  8
0
 10
149
 20
148.05
 11
142
 21
148.05
  0
LINE
  8
0
 10
142
 20
148.05
 11
142
 21
151.05
  0
LINE
  8
0
 10
142
 20
151.05
 11
149
 21
151.05
  0
LINE
  8
0
 10
149
 20
151.05
 11
149
 21
242.95
  0
LINE
  8
0
 10
149
 20
242.95
 11
142
 21
242.95
  0
LINE
  8
0
 10
142
 20
242.95
 11
142
 21
245.95
  0
LINE
  8
0
 10
142
 20
245.95
 11
149
 21
245.95
  0
LINE
  8
0
 10
149
 20
245.95
 11
149
 21
248.05
  0
LINE
  8
0
 10
149
 20
248.05
 11
142
 21
248.05
  0
LINE
  8
0
 10
142
 20
248.05
 11
142
 21
251.05
  0
LINE
  8
0
 10
142
 20
251.05
 11
149
 21
251.05
  0
LINE
  8
0
 10
149
 20
251.05
 11
149
 21
394
  0
LINE
  8
0
 10
149
 20
394
 11
125
 21
394
  0
LINE
  8
0
 10
125
 20
394
 11
125
 21
0
  0
LINE
  8
0
 10
125
 20
0
 11
149
 21
0
  0
LINE
  8
0
 10
149
 20
0
 11
149
 21
42.95
  0
LINE
  8
0
 10
399
 20
42.95
 11
392
 21
42.95
  0
LINE
  8
0
 10
392
 20
42.95
 11
392
 21
45.95
  0
LINE
  8
0
 10
392
 20
45.95
 11
399
 21
45.95
  0
LINE
  8
0
 10
399
 20
45.95
 11
399
 21
48.05
  0
LINE
  8
0
 10
399
 20
48.05
 11
392
 21
48.05
  0
LINE
  8
0
 10
392
 20
48.05
 11
392
 21
51.05
  0
LINE
  8
0
 10
392
 20
51.05
 11
399
 21
51.05
  0
LINE
  8
0
 10
399
 20
51.05
 11
399
 21
142.95
  0
LINE
  8
0
 10
399
 20
142.95
 11
392
 21
142.95
  0
LINE
  8
0
 10
392
 20
142.95
 11
392
 21
145.95
  0
LINE
  8
0
 10
392
 20
145.95
 11
399
 21
145.95
  0
LINE
  8
0
 10
399
 20
145.95
 11
399
 21
148.05
  0
LINE
  8
0
 10
399
 20
148.05
 11
392
 21
148.05
  0
LINE
  8
0
 10
392
 20
148.05
 11
392
 21
151.05
  0
LINE
  8
0
 10
392
 20
151.05
 11
399
 21
151.05
  0
LINE
  8
0
 10
399
 20
151.05
 11
399
 21
242.95
  0
LINE
  8
0
 10
399
 20
242.95
 11
392
 21
242.95
  0
LINE
  8
0
 10
392
 20
242.95
 11
392
 21
245.95
  0
LINE
  8
0
 10
392
 20
245.95
 11
399
 21
245.95
  0
LINE
  8
0
 10
399
 20
245.95
 11
399
 21
248.05
  0
LINE
  8
0
 10
399
 20
248.05
 11
392
 21
248.05
  0
LINE
  8
0
 10
392
 20
248.05
 11
392
 21
251.05
  0
LINE
  8
0
 10
392
 20
251.05
 11
399
 21
251.05
  0
LINE
  8
0
 10
399
 20
251.05
 11
399
 21
342.95
  0
LINE
  8
0
 10
399
 20
342.95
 11
392
 21
342.95
  0
LINE
  8
0
 10
392
 20
342.95
 11
392
 21
345.95
  0
LINE
  8
0
 10
392
 20
345.95
 11
399
 21
345.95
  0
LINE
  8
0
 10
399
 20
345.95
 11
399
 21
348.05
  0
LINE
  8
0
 10
399
 20
348.05
 11
392
 21
348.05
  0
LINE
  8
0
 10
392
 20
348.05
 11
392
 21
351.05
  0
LINE
  8
0
 10
392
 20
351.05
 11
399
 21
351.05
  0
LINE
  8
0
 10
399
 20
351.05
 11
399
 21
394
  0
LINE
  8
0
 10
399
 20
394
 11
375
 21
394
  0
LINE
  8
0
 10
375
 20
394
 11
375
 21
0
  0
LINE
  8
0
 10
375
 20
0
 11
399
 21
0
  0
LINE
  8
0
 10
399
 20
0
 11
399
 21
42.95
  0
LINE
  8
0
 10
199
 20
42.95
 11
192
 21
42.95
  0
LINE
  8
0
 10
192
 20
42.95
 11
192
 21
45.95
  0
LINE
  8
0
 10
192
 20
45.95
 11
199
 21
45.95
  0
LINE
  8
0
 10
199
 20
45.95
 11
199
 21
48.05
  0
LINE
  8
0
 10
199
 20
48.05
 11
192
 21
48.05
  0
LINE
  8
0
 10
192
 20
48.05
 11
192
 21
51.05
  0
LINE
  8
0
 10
192
 20
51.05
 11
199
 21
51.05
  0
LINE
  8
0
 10
199
 20
51.05
 11
199
 21
142.95
  0
LINE
  8
0
 10
199
 20
142.95
 11
192
 21
142.95
  0
LINE
  8
0
 10
192
 20
142.95
 11
192
 21
145.95
  0
LINE
  8
0
 10
192
 20
145.95
 11
199
 21
145.95
  0
LINE
  8
0
 10
199
 20
145.95
 11
199
 21
148.05
  0
LINE
  8
0
 10
199
 20
148.05
 11
192
 21
148.05
  0
LINE
  8
0
 10
192
 20
148.05
 11
192
 21
151.05
  0
LINE
  8
0
 10
192
 20
151.05
 11
199
 21
151.05
  0
LINE
  8
0
 10
199
 20
151.05
 11
199
 21
242.95
  0
LINE
  8
0
 10
199
 20
242.95
 11
192
 21
242.95
  0
LINE
  8
0
 10
192
 20
242.95
 11
192
 21
245.95
  0
LINE
  8
0
 10
192
 20
245.95
 11
199
 21
245.95
  0
LINE
  8
0
 10
199
 20
245.95
 11
199
 21
248.05
  0
LINE
  8
0
 10
199
 20
248.05
 11
192
 21
248.05
  0
LINE
  8
0
 10
192
 20
248.05
 11
192
 21
251.05
  0
LINE
  8
0
 10
192
 20
251.05
 11
199
 21
251.05
  0
LINE
  8
0
 10
199
 20
251.05
 11
199
 21
394
  0
LINE
  8
0
 10
199
 20
394
 11
175
 21
394
  0
LINE
  8
0
 10
175
 20
394
 11
175
 21
0
  0
LINE
  8
0
 10
175
 20
0
 11
199
 21
0
  0
LINE
  8
0
 10
199
 20
0
 11
199
 21
42.95
  0
LINE
  8
0
 10
249
 20
42.95
 11
242
 21
42.95
  0
LINE
  8
0
 10
242
 20
42.95
 11
242
 21
45.95
  0
LINE
  8
0
 10
242
 20
45.95
 11
249
 21
45.95
  0
LINE
  8
0
 10
249
 20
45.95
 11
249
 21
48.05
  0
LINE
  8
0
 10
249
 20
48.05
 11
242
 21
48.05
  0
LINE
  8
0
 10
242
 20
48.05
 11
242
 21
51.05
  0
LINE
  8
0
 10
242
 20
51.05
 11
249
 21
51.05
  0
LINE
  8
0
 10
249
 20
51.05
 11
249
 21
142.95
  0
LINE
  8
0
 10
249
 20
142.95
 11
242
 21
142.95
  0
LINE
  8
0
 10
242
 20
142.95
 11
242
 21
145.95
  0
LINE
  8
0
 10
242
 20
145.95
 11
249
 21
145.95
  0
LINE
  8
0
 10
249
 20
145.95
 11
249
 21
148.05
  0
LINE
  8
0
 10
249
 20
148.05
 11
242
 21
148.05
  0
LINE
  8
0
 10
242
 20
148.05
 11
242
 21
151.05
  0
LINE
  8
0
 10
242
 20
151.05
 11
249
 21
151.05
  0
LINE
  8
0
 10
249
 20
151.05
 11
249
 21
242.95
  0
LINE
  8
0
 10
249
 20
242.95
 11
242
 21
242.95
  0
LINE
  8
0
 10
242
 20
242.95
 11
242
 21
245.95
  0
LINE
  8
0
 10
242
 20
245.95
 11
249
 21
245.95
  0
LINE
  8
0
 10
249
 20
245.95
 11
249
 21
248.05
  0
LINE
  8
0
 10
249
 20
248.05
 11
242
 21
248.05
  0
LINE
  8
0
 10
242
 20
248.05
 11
242
 21
251.05
  0
LINE
  8
0
 10
242
 20
251.05
 11
249
 21
251.05
  0
LINE
  8
0
 10
249
 20
251.05
 11
249
 21
394
  0
LINE
  8
0
 10
249
 20
394
 11
225
 21
394
  0
LINE
  8
0
 10
225
 20
394
 11
225
 21
0
  0
LINE
  8
0
 10
225
 20
0
 11
249
 21
0
  0
LINE
  8
0
 10
249
 20
0
 11
249
 21
42.95
  0
LINE
  8
0
 10
474
 20
22.25
 11
457
 21
22.25
  0
LINE
  8
0
 10
457
 20
22.25
 11
457
 21
25.25
  0
LINE
  8
0
 10
457
 20
25.25
 11
474
 21
25.25
  0
LINE
  8
0
 10
474
 20
25.25
 11
474
 21
34.75
  0
LINE
  8
0
 10
474
 20
34.75
 11
457
 21
34.75
  0
LINE
  8
0
 10
457
 20
34.75
 11
457
 21
37.75
  0
LINE
  8
0
 10
457
 20
37.75
 11
474
 21
37.75
  0
LINE
  8
0
 10
474
 20
37.75
 11
474
 21
72.25
  0
LINE
  8
0
 10
474
 20
72.25
 11
457
 21
72.25
  0
LINE
  8
0
 10
457
 20
72.25
 11
457
 21
75.25
  0
LINE
  8
0
 10
457
 20
75.25
 11
474
 21
75.25
  0
LINE
  8
0
 10
474
 20
75.25
 11
474
 21
84.75
  0
LINE
  8
0
 10
474
 20
84.75
 11
457
 21
84.75
  0
LINE
  8
0
 10
457
 20
84.75
 11
457
 21
87.75
  0
LINE
  8
0
 10
457
 20
87.75
 11
474
 21
87.75
  0
LINE
  8
0
 10
474
 20
87.75
 11
474
 21
122.25
  0
LINE
  8
0
 10
474
 20
122.25
 11
457
 21
122.25
  0
LINE
  8
0
 10
457
 20
122.25
 11
457
 21
125.25
  0
LINE
  8
0
 10
457
 20
125.25
 11
474
 21
125.25
  0
LINE
  8
0
 10
474
 20
125.25
 11
474
 21
134.75
  0
LINE
  8
0
 10
474
 20
134.75
 11
457
 21
134.75
  0
LINE
  8
0
 10
457
 20
134.75
 11
457
 21
137.75
  0
LINE
  8
0
 10
457
 20
137.75
 11
474
 21
137.75
  0
LINE
  8
0
 10
474
 20
137.75
 11
474
 21
160
  0
LINE
  8
0
 10
474
 20
160
 11
450
 21
160
  0
LINE
  8
0
 10
450
 20
160
 11
450
 21
0
  0
LINE
  8
0
 10
450
 20
0
 11
474
 21
0
  0
LINE
  8
0
 10
474
 20
0
 11
474
 21
22.25
  0
LINE
  8
0
 10
499
 20
22.25
 11
482
 21
22.25
  0
LINE
  8
0
 10
482
 20
22.25
 11
482
 21
25.25
  0
LINE
  8
0
 10
482
 20
25.25
 11
499
 21
25.25
  0
LINE
  8
0
 10
499
 20
25.25
 11
499
 21
34.75
  0
LINE
  8
0
 10
499
 20
34.75
 11
482
 21
34.75
  0
LINE
  8
0
 10
482
 20
34.75
 11
482
 21
37.75
  0
LINE
  8
0
 10
482
 20
37.75
 11
499
 21
37.75
  0
LINE
  8
0
 10
499
 20
37.75
 11
499
 21
72.25
  0
LINE
  8
0
 10
499
 20
72.25
 11
482
 21
72.25
  0
LINE
  8
0
 10
482
 20
72.25
 11
482
 21
75.25
  0
LINE
  8
0
 10
482
 20
75.25
 11
499
 21
75.25
  0
LINE
  8
0
 10
499
 20
75.25
 11
499
 21
84.75
  0
LINE
  8
0
 10
499
 20
84.75
 11
482
 21
84.75
  0
LINE
  8
0
 10
482
 20
84.75
 11
482
 21
87.75
  0
LINE
  8
0
 10
482
 20
87.75
 11
499
 21
87.75
  0
LINE
  8
0
 10
499
 20
87.75
 11
499
 21
122.25
  0
LINE
  8
0
 10
499
 20
122.25
 11
482
 21
122.25
  0
LINE
  8
0
 10
482
 20
122.25
 11
482
 21
125.25
  0
LINE
  8
0
 10
482
 20
125.25
 11
499
 21
125.25
  0
LINE
  8
0
 10
499
 20
125.25
 11
499
 21
134.75
  0
LINE
  8
0
 10
499
 20
134.75
 11
482
 21
134.75
  0
LINE
  8
0
 10
482
 20
134.75
 11
482
 21
137.75
  0
LINE
  8
0
 10
482
 20
137.75
 11
499
 21
137.75
  0
LINE
  8
0
 10
499
 20
137.75
 11
499
 21
160
  0
LINE
  8
0
 10
499
 20
160
 11
475
 21
160
  0
LINE
  8
0
 10
475
 20
160
 11
475
 21
0
  0
LINE
  8
0
 10
475
 20
0
 11
499
 21
0
  0
LINE
  8
0
 10
499
 20
0
 11
499
 21
22.25
  0
LINE
  8
0
 10
549
 20
25.95
 11
542
 21
25.95
  0
LINE
  8
0
 10
542
 20
25.95
 11
542
 21
28.95
  0
LINE
  8
0
 10
542
 20
28.95
 11
549
 21
28.95
  0
LINE
  8
0
 10
549
 20
28.95
 11
549
 21
31.05
  0
LINE
  8
0
 10
549
 20
31.05
 11
542
 21
31.05
  0
LINE
  8
0
 10
542
 20
31.05
 11
542
 21
34.05
  0
LINE
  8
0
 10
542
 20
34.05
 11
549
 21
34.05
  0
LINE
  8
0
 10
549
 20
34.05
 11
549
 21
125.95
  0
LINE
  8
0
 10
549
 20
125.95
 11
542
 21
125.95
  0
LINE
  8
0
 10
542
 20
125.95
 11
542
 21
128.95
  0
LINE
  8
0
 10
542
 20
128.95
 11
549
 21
128.95
  0
LINE
  8
0
 10
549
 20
128.95
 11
549
 21
131.05
  0
LINE
  8
0
 10
549
 20
131.05
 11
542
 21
131.05
  0
LINE
  8
0
 10
542
 20
131.05
 11
542
 21
134.05
  0
LINE
  8
0
 10
542
 20
134.05
 11
549
 21
134.05
  0
LINE
  8
0
 10
549
 20
134.05
 11
549
 21
160
  0
LINE
  8
0
 10
549
 20
160
 11
525
 21
160
  0
LINE
  8
0
 10
525
 20
160
 11
525
 21
0
  0
LINE
  8
0
 10
525
 20
0
 11
549
 21
0
  0
LINE
  8
0
 10
549
 20
0
 11
549
 21
25.95
  0
LINE
  8
0
 10
524
 20
25.95
 11
517
 21
25.95
  0
LINE
  8
0
 10
517
 20
25.95
 11
517
 21
28.95
  0
LINE
  8
0
 10
517
 20
28.95
 11
524
 21
28.95
  0
LINE
  8
0
 10
524
 20
28.95
 11
524
 21
31.05
  0
LINE
  8
0
 10
524
 20
31.05
 11
517
 21
31.05
  0
LINE
  8
0
 10
517
 20
31.05
 11
517
 21
34.05
  0
LINE
  8
0
 10
517
 20
34.05
 11
524
 21
34.05
  0
LINE
  8
0
 10
524
 20
34.05
 11
524
 21
125.95
  0
LINE
  8
0
 10
524
 20
125.95
 11
517
 21
125.95
  0
LINE
  8
0
 10
517
 20
125.95
 11
517
 21
128.95
  0
LINE
  8
0
 10
517
 20
128.95
 11
524
 21
128.95
  0
LINE
  8
0
 10
524
 20
128.95
 11
524
 21
131.05
  0
LINE
  8
0
 10
524
 20
131.05
 11
517
 21
131.05
  0
LINE
  8
0
 10
517
 20
131.05
 11
517
 21
134.05
  0
LINE
  8
0
 10
517
 20
134.05
 11
524
 21
134.05
  0
LINE
  8
0
 10
524
 20
134.05
 11
524
 21
160
  0
LINE
  8
0
 10
524
 20
160
 11
500
 21
160
  0
LINE
  8
0
 10
500
 20
160
 11
500
 21
0
  0
LINE
  8
0
 10
500
 20
0
 11
524
 21
0
  0
LINE
  8
0
 10
524
 20
0
 11
524
 21
25.95
  0
ENDSEC
  0
SECTION
  2
OBJECTS
  0
DICTIONARY
  0
ENDSEC
  0
EOF
